  0
SECTION
  2
HEADER
  9
$ACADVER
  1
AC1018
  9
$ACADMAINTVER
 70
   104
  9
$DWGCODEPAGE
  3
ANSI_1252
  9
$INSBASE
 10
0.0
 20
0.0
 30
0.0
  9
$EXTMIN
 10
1.000000000000000E+20
 20
1.000000000000000E+20
 30
1.000000000000000E+20
  9
$EXTMAX
 10
-1.000000000000000E+20
 20
-1.000000000000000E+20
 30
-1.000000000000000E+20
  9
$LIMMIN
 10
0.0
 20
0.0
  9
$LIMMAX
 10
12.0
 20
9.0
  9
$ORTHOMODE
 70
     0
  9
$REGENMODE
 70
     1
  9
$FILLMODE
 70
     1
  9
$QTEXTMODE
 70
     0
  9
$MIRRTEXT
 70
     0
  9
$LTSCALE
 40
1.0
  9
$ATTMODE
 70
     1
  9
$TEXTSIZE
 40
0.2
  9
$TRACEWID
 40
0.05
  9
$TEXTSTYLE
  7
Standard
  9
$CLAYER
  8
0
  9
$CELTYPE
  6
ByLayer
  9
$CECOLOR
 62
   256
  9
$CELTSCALE
 40
1.0
  9
$DISPSILH
 70
     0
  9
$DIMSCALE
 40
1.0
  9
$DIMASZ
 40
0.18
  9
$DIMEXO
 40
0.0625
  9
$DIMDLI
 40
0.38
  9
$DIMRND
 40
0.0
  9
$DIMDLE
 40
0.0
  9
$DIMEXE
 40
0.18
  9
$DIMTP
 40
0.0
  9
$DIMTM
 40
0.0
  9
$DIMTXT
 40
0.18
  9
$DIMCEN
 40
0.09
  9
$DIMTSZ
 40
0.0
  9
$DIMTOL
 70
     0
  9
$DIMLIM
 70
     0
  9
$DIMTIH
 70
     1
  9
$DIMTOH
 70
     1
  9
$DIMSE1
 70
     0
  9
$DIMSE2
 70
     0
  9
$DIMTAD
 70
     0
  9
$DIMZIN
 70
     0
  9
$DIMBLK
  1

  9
$DIMASO
 70
     1
  9
$DIMSHO
 70
     1
  9
$DIMPOST
  1

  9
$DIMAPOST
  1

  9
$DIMALT
 70
     0
  9
$DIMALTD
 70
     2
  9
$DIMALTF
 40
25.4
  9
$DIMLFAC
 40
1.0
  9
$DIMTOFL
 70
     0
  9
$DIMTVP
 40
0.0
  9
$DIMTIX
 70
     0
  9
$DIMSOXD
 70
     0
  9
$DIMSAH
 70
     0
  9
$DIMBLK1
  1

  9
$DIMBLK2
  1

  9
$DIMSTYLE
  2
Standard
  9
$DIMCLRD
 70
     0
  9
$DIMCLRE
 70
     0
  9
$DIMCLRT
 70
     0
  9
$DIMTFAC
 40
1.0
  9
$DIMGAP
 40
0.09
  9
$DIMJUST
 70
     0
  9
$DIMSD1
 70
     0
  9
$DIMSD2
 70
     0
  9
$DIMTOLJ
 70
     1
  9
$DIMTZIN
 70
     0
  9
$DIMALTZ
 70
     0
  9
$DIMALTTZ
 70
     0
  9
$DIMUPT
 70
     0
  9
$DIMDEC
 70
     4
  9
$DIMTDEC
 70
     4
  9
$DIMALTU
 70
     2
  9
$DIMALTTD
 70
     2
  9
$DIMTXSTY
  7
Standard
  9
$DIMAUNIT
 70
     0
  9
$DIMADEC
 70
     0
  9
$DIMALTRND
 40
0.0
  9
$DIMAZIN
 70
     0
  9
$DIMDSEP
 70
    46
  9
$DIMATFIT
 70
     3
  9
$DIMFRAC
 70
     0
  9
$DIMLDRBLK
  1

  9
$DIMLUNIT
 70
     2
  9
$DIMLWD
 70
    -2
  9
$DIMLWE
 70
    -2
  9
$DIMTMOVE
 70
     0
  9
$LUNITS
 70
     2
  9
$LUPREC
 70
     4
  9
$SKETCHINC
 40
0.1
  9
$FILLETRAD
 40
0.0
  9
$AUNITS
 70
     0
  9
$AUPREC
 70
     0
  9
$MENU
  1
.
  9
$ELEVATION
 40
0.0
  9
$PELEVATION
 40
0.0
  9
$THICKNESS
 40
0.0
  9
$LIMCHECK
 70
     0
  9
$CHAMFERA
 40
0.0
  9
$CHAMFERB
 40
0.0
  9
$CHAMFERC
 40
0.0
  9
$CHAMFERD
 40
0.0
  9
$SKPOLY
 70
     0
  9
$TDCREATE
 40
2460358.459502315
  9
$TDUCREATE
 40
2460358.709502315
  9
$TDUPDATE
 40
2460358.459502315
  9
$TDUUPDATE
 40
2460358.709502315
  9
$TDINDWG
 40
0.0000000000
  9
$TDUSRTIMER
 40
0.0000000000
  9
$USRTIMER
 70
     1
  9
$ANGBASE
 50
0.0
  9
$ANGDIR
 70
     0
  9
$PDMODE
 70
     0
  9
$PDSIZE
 40
0.0
  9
$PLINEWID
 40
0.0
  9
$SPLFRAME
 70
     0
  9
$SPLINETYPE
 70
     6
  9
$SPLINESEGS
 70
     8
  9
$HANDSEED
  5
239
  9
$SURFTAB1
 70
     6
  9
$SURFTAB2
 70
     6
  9
$SURFTYPE
 70
     6
  9
$SURFU
 70
     6
  9
$SURFV
 70
     6
  9
$UCSBASE
  2

  9
$UCSNAME
  2

  9
$UCSORG
 10
0.0
 20
0.0
 30
0.0
  9
$UCSXDIR
 10
1.0
 20
0.0
 30
0.0
  9
$UCSYDIR
 10
0.0
 20
1.0
 30
0.0
  9
$UCSORTHOREF
  2

  9
$UCSORTHOVIEW
 70
     0
  9
$UCSORGTOP
 10
0.0
 20
0.0
 30
0.0
  9
$UCSORGBOTTOM
 10
0.0
 20
0.0
 30
0.0
  9
$UCSORGLEFT
 10
0.0
 20
0.0
 30
0.0
  9
$UCSORGRIGHT
 10
0.0
 20
0.0
 30
0.0
  9
$UCSORGFRONT
 10
0.0
 20
0.0
 30
0.0
  9
$UCSORGBACK
 10
0.0
 20
0.0
 30
0.0
  9
$PUCSBASE
  2

  9
$PUCSNAME
  2

  9
$PUCSORG
 10
0.0
 20
0.0
 30
0.0
  9
$PUCSXDIR
 10
1.0
 20
0.0
 30
0.0
  9
$PUCSYDIR
 10
0.0
 20
1.0
 30
0.0
  9
$PUCSORTHOREF
  2

  9
$PUCSORTHOVIEW
 70
     0
  9
$PUCSORGTOP
 10
0.0
 20
0.0
 30
0.0
  9
$PUCSORGBOTTOM
 10
0.0
 20
0.0
 30
0.0
  9
$PUCSORGLEFT
 10
0.0
 20
0.0
 30
0.0
  9
$PUCSORGRIGHT
 10
0.0
 20
0.0
 30
0.0
  9
$PUCSORGFRONT
 10
0.0
 20
0.0
 30
0.0
  9
$PUCSORGBACK
 10
0.0
 20
0.0
 30
0.0
  9
$USERI1
 70
     0
  9
$USERI2
 70
     0
  9
$USERI3
 70
     0
  9
$USERI4
 70
     0
  9
$USERI5
 70
     0
  9
$USERR1
 40
0.0
  9
$USERR2
 40
0.0
  9
$USERR3
 40
0.0
  9
$USERR4
 40
0.0
  9
$USERR5
 40
0.0
  9
$WORLDVIEW
 70
     1
  9
$SHADEDGE
 70
     3
  9
$SHADEDIF
 70
    70
  9
$TILEMODE
 70
     1
  9
$MAXACTVP
 70
    64
  9
$PINSBASE
 10
0.0
 20
0.0
 30
0.0
  9
$PLIMCHECK
 70
     0
  9
$PEXTMIN
 10
1.000000000000000E+20
 20
1.000000000000000E+20
 30
1.000000000000000E+20
  9
$PEXTMAX
 10
-1.000000000000000E+20
 20
-1.000000000000000E+20
 30
-1.000000000000000E+20
  9
$PLIMMIN
 10
0.0
 20
0.0
  9
$PLIMMAX
 10
12.0
 20
9.0
  9
$UNITMODE
 70
     0
  9
$VISRETAIN
 70
     1
  9
$PLINEGEN
 70
     0
  9
$PSLTSCALE
 70
     1
  9
$TREEDEPTH
 70
  3020
  9
$CMLSTYLE
  2
Standard
  9
$CMLJUST
 70
     0
  9
$CMLSCALE
 40
1.0
  9
$PROXYGRAPHICS
 70
     1
  9
$MEASUREMENT
 70
     0
  9
$CELWEIGHT
370
    -1
  9
$ENDCAPS
280
     0
  9
$JOINSTYLE
280
     0
  9
$LWDISPLAY
290
     1
  9
$INSUNITS
 70
     4
  9
$HYPERLINKBASE
  1

  9
$STYLESHEET
  1

  9
$XEDIT
290
     1
  9
$CEPSNTYPE
380
     0
  9
$PSTYLEMODE
290
     1
  9
$FINGERPRINTGUID
  2
{B3D253FF-6431-9A42-AF09-EC2D200E61DE}
  9
$VERSIONGUID
  2
{170F5530-A7B6-044C-A8AC-D55641D3FD85}
  9
$EXTNAMES
290
     1
  9
$PSVPSCALE
 40
0.0
  9
$OLESTARTUP
290
     0
  9
$SORTENTS
280
   127
  9
$INDEXCTL
280
     0
  9
$HIDETEXT
280
     1
  9
$XCLIPFRAME
290
     0
  9
$HALOGAP
280
     0
  9
$OBSCOLOR
 70
   257
  9
$OBSLTYPE
280
     0
  9
$INTERSECTIONDISPLAY
280
     0
  9
$INTERSECTIONCOLOR
 70
   257
  9
$DIMASSOC
280
     2
  9
$PROJECTNAME
  1

  0
ENDSEC
  0
SECTION
  2
CLASSES
  0
CLASS
  1
ACDBDICTIONARYWDFLT
  2
AcDbDictionaryWithDefault
  3
ObjectDBX Classes
 90
        0
 91
        1
280
     0
281
     0
  0
CLASS
  1
MATERIAL
  2
AcDbMaterial
  3
ObjectDBX Classes
 90
     1153
 91
        3
280
     0
281
     0
  0
CLASS
  1
VISUALSTYLE
  2
AcDbVisualStyle
  3
ObjectDBX Classes
 90
     4095
 91
       24
280
     0
281
     0
  0
CLASS
  1
SCALE
  2
AcDbScale
  3
ObjectDBX Classes
 90
     1153
 91
       17
280
     0
281
     0
  0
CLASS
  1
TABLESTYLE
  2
AcDbTableStyle
  3
ObjectDBX Classes
 90
     4095
 91
        1
280
     0
281
     0
  0
CLASS
  1
MLEADERSTYLE
  2
AcDbMLeaderStyle
  3
ACDB_MLEADERSTYLE_CLASS
 90
     4095
 91
        1
280
     0
281
     0
  0
CLASS
  1
ACDBSECTIONVIEWSTYLE
  2
AcDbSectionViewStyle
  3
ObjectDBX Classes
 90
     1025
 91
        1
280
     0
281
     0
  0
CLASS
  1
ACDBDETAILVIEWSTYLE
  2
AcDbDetailViewStyle
  3
ObjectDBX Classes
 90
     1025
 91
        1
280
     0
281
     0
  0
CLASS
  1
DICTIONARYVAR
  2
AcDbDictionaryVar
  3
ObjectDBX Classes
 90
        0
 91
       10
280
     0
281
     0
  0
CLASS
  1
CELLSTYLEMAP
  2
AcDbCellStyleMap
  3
ObjectDBX Classes
 90
     1152
 91
        1
280
     0
281
     0
  0
ENDSEC
  0
SECTION
  2
TABLES
  0
TABLE
  2
VPORT
  5
8
330
0
100
AcDbSymbolTable
 70
     1
  0
VPORT
  5
57
330
8
100
AcDbSymbolTableRecord
100
AcDbViewportTableRecord
  2
*Active
 70
     0
 10
0.0
 20
0.0
 11
1.0
 21
1.0
 12
0.0
 22
0.0
 13
0.0
 23
0.0
 14
1.0
 24
1.0
 15
0.0
 25
0.0
 16
0.0
 26
0.0
 36
1.0
 17
-157.9170898403291
 27
-125.983999968504
 37
0.0
 40
257.0073599357481
 41
3.471211343343667
 42
50.0
 43
0.0
 44
0.0
 50
0.0
 51
0.0
 71
     0
 72
   100
 73
     1
 74
     0
 75
     1
 76
     0
 77
     0
 78
     0
281
     0
 65
     1
110
0.0
120
0.0
130
0.0
111
1.0
121
0.0
131
0.0
112
0.0
122
1.0
132
0.0
 79
     0
146
0.0
  0
ENDTAB
  0
TABLE
  2
LTYPE
  5
5
330
0
100
AcDbSymbolTable
 70
     1
  0
LTYPE
  5
5B
330
5
100
AcDbSymbolTableRecord
100
AcDbLinetypeTableRecord
  2
ByBlock
 70
     0
  3

 72
    65
 73
     0
 40
0.0
  0
LTYPE
  5
5C
330
5
100
AcDbSymbolTableRecord
100
AcDbLinetypeTableRecord
  2
ByLayer
 70
     0
  3

 72
    65
 73
     0
 40
0.0
  0
LTYPE
  5
5D
330
5
100
AcDbSymbolTableRecord
100
AcDbLinetypeTableRecord
  2
Continuous
 70
     0
  3
Solid line
 72
    65
 73
     0
 40
0.0
  0
ENDTAB
  0
TABLE
  2
LAYER
  5
2
330
0
100
AcDbSymbolTable
 70
     2
  0
LAYER
  5
54
330
2
100
AcDbSymbolTableRecord
100
AcDbLayerTableRecord
  2
0
 70
     0
 62
     7
  6
Continuous
370
    -3
390
F
  0
LAYER
  5
78
330
2
100
AcDbSymbolTableRecord
100
AcDbLayerTableRecord
  2
Capa 1
 70
     0
 62
     7
  6
Continuous
370
     0
390
F
  0
ENDTAB
  0
TABLE
  2
STYLE
  5
3
330
0
100
AcDbSymbolTable
 70
     2
  0
STYLE
  5
55
330
3
100
AcDbSymbolTableRecord
100
AcDbTextStyleTableRecord
  2
Standard
 70
     0
 40
0.0
 41
1.0
 50
0.0
 71
     0
 42
0.2
  3
txt
  4

  0
STYLE
  5
5A
330
3
100
AcDbSymbolTableRecord
100
AcDbTextStyleTableRecord
  2
Annotative
 70
     0
 40
0.0
 41
1.0
 50
0.0
 71
     0
 42
0.2
  3
txt
  4

1001
AcadAnnotative
1000
AnnotativeData
1002
{
1070
     1
1070
     1
1002
}
  0
ENDTAB
  0
TABLE
  2
VIEW
  5
6
330
0
100
AcDbSymbolTable
 70
     0
  0
ENDTAB
  0
TABLE
  2
UCS
  5
7
330
0
100
AcDbSymbolTable
 70
     0
  0
ENDTAB
  0
TABLE
  2
APPID
  5
9
330
0
100
AcDbSymbolTable
 70
     3
  0
APPID
  5
56
330
9
100
AcDbSymbolTableRecord
100
AcDbRegAppTableRecord
  2
ACAD
 70
     0
  0
APPID
  5
5E
330
9
100
AcDbSymbolTableRecord
100
AcDbRegAppTableRecord
  2
AcadAnnotative
 70
     0
  0
APPID
  5
232
330
9
100
AcDbSymbolTableRecord
100
AcDbRegAppTableRecord
  2
ACAD_MLEADERVER
 70
     0
  0
ENDTAB
  0
TABLE
  2
DIMSTYLE
  5
A
330
0
100
AcDbSymbolTable
 70
     2
100
AcDbDimStyleTable
 71
     0
  0
DIMSTYLE
105
58
330
A
100
AcDbSymbolTableRecord
100
AcDbDimStyleTableRecord
  2
Standard
 70
     0
340
55
  0
DIMSTYLE
105
59
330
A
100
AcDbSymbolTableRecord
100
AcDbDimStyleTableRecord
  2
Annotative
 70
     0
340
55
1001
AcadAnnotative
1000
AnnotativeData
1002
{
1070
     1
1070
     1
1002
}
  0
ENDTAB
  0
TABLE
  2
BLOCK_RECORD
  5
1
330
0
100
AcDbSymbolTable
 70
     1
  0
BLOCK_RECORD
  5
70
330
1
100
AcDbSymbolTableRecord
100
AcDbBlockTableRecord
  2
*Model_Space
340
73
  0
BLOCK_RECORD
  5
6C
330
1
100
AcDbSymbolTableRecord
100
AcDbBlockTableRecord
  2
*Paper_Space
340
6F
  0
BLOCK_RECORD
  5
74
330
1
100
AcDbSymbolTableRecord
100
AcDbBlockTableRecord
  2
*Paper_Space0
340
77
  0
ENDTAB
  0
ENDSEC
  0
SECTION
  2
BLOCKS
  0
BLOCK
  5
71
330
70
100
AcDbEntity
  8
0
100
AcDbBlockBegin
  2
*Model_Space
 70
     0
 10
0.0
 20
0.0
 30
0.0
  3
*Model_Space
  1

  0
ENDBLK
  5
72
330
70
100
AcDbEntity
  8
0
100
AcDbBlockEnd
  0
BLOCK
  5
6D
330
6C
100
AcDbEntity
 67
     1
  8
0
100
AcDbBlockBegin
  2
*Paper_Space
 70
     0
 10
0.0
 20
0.0
 30
0.0
  3
*Paper_Space
  1

  0
ENDBLK
  5
6E
330
6C
100
AcDbEntity
 67
     1
  8
0
100
AcDbBlockEnd
  0
BLOCK
  5
75
330
74
100
AcDbEntity
 67
     1
  8
0
100
AcDbBlockBegin
  2
*Paper_Space0
 70
     0
 10
0.0
 20
0.0
 30
0.0
  3
*Paper_Space0
  1

  0
ENDBLK
  5
76
330
74
100
AcDbEntity
 67
     1
  8
0
100
AcDbBlockEnd
  0
ENDSEC
  0
SECTION
  2
ENTITIES
  0
LWPOLYLINE
  5
79
330
70
100
AcDbEntity
  8
Capa 1
 62
     1
370
     9
100
AcDbPolyline
 90
       64
 70
     1
 43
0.0
 10
-428.6358355040122
 20
-11.15880218850962
 10
-436.0439688721765
 20
-11.15880218850962
 10
-444.0676465808017
 20
-11.16956824933211
 10
-452.5880731022266
 20
-11.16956824933211
 10
-461.4972708403446
 20
-11.18033431015491
 10
-470.698045550134
 20
-11.18033431015491
 10
-480.050006184713
 20
-11.1911003709774
 10
-483.1493234062336
 20
-11.1911003709774
 10
-483.2789138118028
 20
-11.33103610800862
 10
-483.2681131704832
 20
-16.27261191827819
 10
-486.2378457498571
 20
-16.283377979101
 10
-486.2486463911731
 20
-11.33103610800862
 10
-486.3782367967423
 20
-11.1911003709774
 10
-489.4667533769468
 20
-11.1911003709774
 10
-498.8295146528384
 20
-11.2018664318002
 10
-508.0302864809238
 20
-11.21263249262269
 10
-516.9394842190419
 20
-11.21263249262269
 10
-525.4599165038818
 20
-11.2233985534455
 10
-533.4835942125067
 20
-11.2233985534455
 10
-540.8917283011001
 20
-11.23416461426798
 10
-547.5655273844473
 20
-11.23416461426798
 10
-544.2286275726131
 20
-17.00470405421839
 10
-540.513762048281
 20
-23.39965196821921
 10
-536.5073227941997
 20
-30.31139385537065
 10
-532.2309071306574
 20
-37.67531029707352
 10
-527.7709093817922
 20
-45.3621855097924
 10
-523.1705234677497
 20
-53.29668012143229
 10
-518.4837453908516
 20
-61.38189958458921
 10
-516.9394842190419
 20
-64.04109355412069
 10
-516.9394842190419
 20
-64.04109355412069
 10
-516.7558992520111
 20
-64.09490080457043
 10
-512.4578866283948
 20
-61.6187529226874
 10
-510.9676200180496
 20
-64.18102929115159
 10
-515.2656355233737
 20
-66.65720022669794
 10
-515.3196300848389
 20
-66.84022326068275
 10
-513.7753689130287
 20
-69.49941723021423
 10
-509.0885908361308
 20
-77.58463669337115
 10
-504.4774057216259
 20
-85.51913130501104
 10
-500.017406531907
 20
-93.20600651772993
 10
-495.7517929505348
 20
-100.5698999057691
 10
-491.7453486534668
 20
-107.4924078537434
 10
-488.0304870914819
 20
-113.8766127605847
 10
-484.6827839367273
 20
-119.6471522005354
 10
-481.3566878280274
 20
-113.8766127605847
 10
-477.6526211439438
 20
-107.4816417929206
 10
-473.6461826102906
 20
-100.5483677841238
 10
-469.3913639068228
 20
-93.18447439608464
 10
-464.9421624767128
 20
-85.48683312254295
 10
-460.3417751218164
 20
-77.55233851090306
 10
-455.6765954458462
 20
-69.46711904774613
 10
-454.1323342740364
 20
-66.79715901739218
 10
-454.1755310758928
 20
-66.61413598340704
 10
-458.4843472225331
 20
-64.13796504786102
 10
-457.0048783717965
 20
-61.57568867939683
 10
-452.6960679885714
 20
-64.05183656127985
 10
-452.5124801398334
 20
-63.99802931082979
 10
-450.96821896802
 20
-61.32806928047615
 10
-446.2922444141494
 20
-53.2428498173189
 10
-441.7026519371573
 20
-45.30835520567934
 10
-437.2534562704621
 20
-37.61071393213764
 10
-432.9986375669943
 20
-30.24679749043479
 10
-428.9921990333415
 20
-23.3135465353017
 10
-425.2881323492574
 20
-16.91857556763723
 10
-421.9512298358228
 20
-11.14803612768682
  0
LWPOLYLINE
  5
7A
330
70
100
AcDbEntity
  8
Capa 1
 62
     1
370
     9
100
AcDbPolyline
 90
       43
 70
     0
 43
0.0
 10
-359.0792904514482
 20
-119.5610237139543
 10
-355.7423879380134
 20
-113.7904842740036
 10
-352.0383327807617
 20
-107.3955133063394
 10
-348.0318827202758
 20
-100.4622392975427
 10
-343.7770755436395
 20
-93.09834590950348
 10
-339.3278798769459
 20
-85.40070463596178
 10
-334.7274752318035
 20
-77.46621002432189
 10
-330.0623128460809
 20
-69.38099056116498
 10
-328.5180401474383
 20
-66.71103053081101
 10
-328.5612427127095
 20
-66.52800749682588
 10
-332.8700415691035
 20
-64.05183656127985
 10
-331.3905727183676
 20
-61.48956019281566
 10
-327.0817738619737
 20
-63.96570807469869
 10
-326.8981975400665
 20
-63.91190082424863
 10
-325.3539248414239
 20
-61.24194079389466
 10
-320.6779502875519
 20
-53.15672133073775
 10
-316.0883578105592
 20
-45.22222671909785
 10
-311.6391621438653
 20
-37.52458544555648
 10
-307.3843549672287
 20
-30.16066900385363
 10
-303.3779049067431
 20
-23.23818410954302
 10
-299.6846388639783
 20
-16.83244708105607
 10
-296.3477363505424
 20
-11.06190764110565
 10
-303.0215413774142
 20
-11.07267370192814
 10
-310.4296747455794
 20
-11.07267370192814
 10
-318.4533409273734
 20
-11.08343976275095
 10
-326.973790502459
 20
-11.08343976275095
 10
-335.8937831184816
 20
-11.09420582357375
 10
-345.083757186954
 20
-11.09420582357375
 10
-354.4357062946989
 20
-11.10497188439624
 10
-357.5350292796384
 20
-11.10497188439624
 10
-357.6646139217887
 20
-11.24493067509078
 10
-357.6538248073032
 20
-16.19724949251984
 10
-360.623551623258
 20
-16.19724949251984
 10
-360.634352264578
 20
-11.24493067509078
 10
-360.7639369067281
 20
-11.10497188439624
 10
-363.8524592503478
 20
-11.11573794521904
 10
-373.2152205262432
 20
-11.11573794521904
 10
-382.4159952360326
 20
-11.12650400604153
 10
-391.3251872107387
 20
-11.12650400604153
 10
-399.8456252589906
 20
-11.13727006686433
 10
-407.8693029676157
 20
-11.13727006686433
 10
-415.2774363357836
 20
-11.14803612768682
 10
-421.9512298358228
 20
-11.14803612768682
  0
LWPOLYLINE
  5
7B
330
70
100
AcDbEntity
  8
Capa 1
 62
     1
370
     9
100
AcDbPolyline
 90
        7
 70
     0
 43
0.0
 10
-391.3251872107387
 20
-63.95496506753922
 10
-391.3251872107387
 20
-63.96570807469869
 10
-391.1416108888312
 20
-64.00877231798927
 10
-386.8435896200919
 20
-61.53262443610625
 10
-385.3533316548696
 20
-64.09490080457043
 10
-389.6513413967751
 20
-66.57107174011613
 10
-389.7053330765321
 20
-66.75409477410159
  0
LWPOLYLINE
  5
7C
330
70
100
AcDbEntity
  8
Capa 1
 62
     1
370
     9
100
AcDbPolyline
 90
       44
 70
     0
 43
0.0
 10
-484.6827839367273
 20
-119.6471522005354
 10
-477.9981897953685
 20
-119.6471522005354
 10
-470.6008513051087
 20
-119.636386139713
 10
-462.57717359648
 20
-119.636386139713
 10
-454.0567413116432
 20
-119.6256200788901
 10
-445.1367486956207
 20
-119.6148540180673
 10
-435.9467746271477
 20
-119.6148540180673
 10
-426.5840133512561
 20
-119.6040879572449
 10
-423.4954910076327
 20
-119.6040879572449
 10
-423.3659063654824
 20
-119.4641291665503
 10
-423.3659063654824
 20
-114.5225764099437
 10
-420.406968664013
 20
-114.5117872954579
 10
-420.3961680226932
 20
-119.4641291665503
 10
-420.2665833805429
 20
-119.6040879572449
 10
-417.1672603956034
 20
-119.6040879572449
 10
-407.8152997610279
 20
-119.5933218964221
 10
-398.6145365780691
 20
-119.5933218964221
 10
-389.7053330765321
 20
-119.5825558355992
 10
-381.1849065551111
 20
-119.5717897747768
 10
-373.1612288464859
 20
-119.5717897747768
 10
-365.7530954783212
 20
-119.5610237139543
 10
-359.0792904514482
 20
-119.5610237139543
 10
-362.4161929648828
 20
-113.7904842740036
 10
-366.1310602902832
 20
-107.4062793671622
 10
-370.1374988239393
 20
-100.483771419188
 10
-374.4031066418929
 20
-93.11987803114877
 10
-378.8739151180542
 20
-85.43300281842988
 10
-383.4742967095321
 20
-77.49850820678999
 10
-388.1610719047223
 20
-69.42405480445555
 10
-389.7053330765321
 20
-66.75409477410159
 10
-389.7053330765321
 20
-66.75409477410159
 10
-389.8889209252737
 20
-66.70026446998853
 10
-394.1869306671792
 20
-69.17643540553455
 10
-395.6772001592356
 20
-66.62490204422984
 10
-391.379178890496
 20
-64.13796504786102
 10
-391.3251872107387
 20
-63.95496506753922
 10
-392.8694483825485
 20
-61.29577109800806
 10
-397.5562235777391
 20
-53.21055163485112
 10
-402.1566166960471
 20
-45.28682308403404
 10
-406.6274136453783
 20
-37.58918181049236
 10
-410.882232348846
 20
-30.2360314296123
 10
-414.8994715238184
 20
-23.3135465353017
 10
-418.6143273223879
 20
-16.91857556763723
 10
-421.9512298358228
 20
-11.14803612768682
  0
LWPOLYLINE
  5
7D
330
70
100
AcDbEntity
  8
Capa 1
 62
     1
370
     9
100
AcDbPolyline
 90
        6
 70
     0
 43
0.0
 10
-452.5124801398334
 20
-63.99802931082979
 10
-452.458488460076
 20
-64.19181840563772
 10
-448.1604787181673
 20
-66.65720022669794
 10
-449.6399360420697
 20
-69.21949964882514
 10
-453.9487521887138
 20
-66.74332871327909
 10
-454.1323342740364
 20
-66.79715901739218
  0
LWPOLYLINE
  5
7E
330
70
100
AcDbEntity
  8
Capa 1
 62
     1
370
     9
100
AcDbPolyline
 90
       43
 70
     0
 43
0.0
 10
-233.4649963248508
 20
-119.4748952273728
 10
-230.1280938114149
 20
-113.7043557874224
 10
-226.4240386541636
 20
-107.3093848197582
 10
-222.4175885936784
 20
-100.3761108109615
 10
-218.1627814170421
 20
-93.02298348374479
 10
-213.7135626966851
 20
-85.31457614938062
 10
-209.1239932733555
 20
-77.38008153774074
 10
-204.4480187194835
 20
-69.2948620745838
 10
-202.9037460208409
 20
-66.62490204422984
 10
-202.9577377005985
 20
-66.44187901024472
 10
-207.2557474425057
 20
-63.96570807469869
 10
-205.7762785917698
 20
-61.40343170623451
 10
-201.4674797353762
 20
-63.87957958811721
 10
-201.2839034134687
 20
-63.82577233766746
 10
-199.7396307148261
 20
-61.15581230731351
 10
-195.0744452754402
 20
-53.08135890497939
 10
-190.4848758521106
 20
-45.13609823251669
 10
-186.0248680172675
 20
-37.43845695897532
 10
-181.7700377869676
 20
-30.07454051727246
 10
-177.7636107801453
 20
-23.15205562296186
 10
-174.0703447373808
 20
-16.7463185944749
 10
-170.7334422239449
 20
-10.98654521534698
 10
-177.4180363653028
 20
-10.98654521534698
 10
-184.8153806189816
 20
-10.98654521534698
 10
-192.8390468007756
 20
-10.99731127616978
 10
-201.3594963758616
 20
-10.99731127616978
 10
-210.2794889918841
 20
-11.00807733699227
 10
-219.4694630603561
 20
-11.00807733699227
 10
-228.8322243362506
 20
-11.01884339781507
 10
-231.9207466798715
 20
-11.01884339781507
 10
-232.0503313220218
 20
-11.15880218850962
 10
-232.0503313220218
 20
-16.11112100593867
 10
-235.0092459698301
 20
-16.11112100593867
 10
-235.0200581379795
 20
-11.15880218850962
 10
-235.1496427801297
 20
-11.02960945863756
 10
-238.2489542382374
 20
-11.02960945863756
 10
-247.6009263996448
 20
-11.04037551946037
 10
-256.8016895826036
 20
-11.04037551946037
 10
-265.7108930841396
 20
-11.05114158028285
 10
-274.2313196055619
 20
-11.05114158028285
 10
-282.2550088410196
 20
-11.05114158028285
 10
-289.6631422091846
 20
-11.06190764110565
 10
-296.3477363505424
 20
-11.06190764110565
  0
LWPOLYLINE
  5
7F
330
70
100
AcDbEntity
  8
Capa 1
 62
     1
370
     9
100
AcDbPolyline
 90
        7
 70
     0
 43
0.0
 10
-265.7108930841396
 20
-63.87957958811721
 10
-265.7108930841396
 20
-63.87957958811721
 10
-265.5273167622321
 20
-63.92264383140779
 10
-261.2293070203246
 20
-61.44649594952508
 10
-259.7390260014393
 20
-64.00877231798927
 10
-264.0370357433468
 20
-66.48494325353562
 10
-264.0910504767675
 20
-66.66796628752043
  0
LWPOLYLINE
  5
80
330
70
100
AcDbEntity
  8
Capa 1
 62
     1
370
     9
100
AcDbPolyline
 90
       44
 70
     0
 43
0.0
 10
-359.0792904514482
 20
-119.5610237139543
 10
-352.3946963100903
 20
-119.5610237139543
 10
-344.9865629419254
 20
-119.5502576531318
 10
-336.9628737064684
 20
-119.5502576531318
 10
-328.4424471850455
 20
-119.5394915923087
 10
-319.5224545690229
 20
-119.5394915923087
 10
-310.3324805005509
 20
-119.5287255314862
 10
-300.9805083391432
 20
-119.5179594706637
 10
-297.8811968810356
 20
-119.5179594706637
 10
-297.7516122388853
 20
-119.3887667407916
 10
-297.7624013533718
 20
-114.4364479233626
 10
-294.7926745374137
 20
-114.4364479233626
 10
-294.7818854229275
 20
-119.3780006799691
 10
-294.6523007807776
 20
-119.5179594706637
 10
-291.5637784371558
 20
-119.5179594706637
 10
-282.2010171612623
 20
-119.5071934098409
 10
-273.0002309246405
 20
-119.5071934098409
 10
-264.0910504767675
 20
-119.4964273490181
 10
-255.5706009016818
 20
-119.4964273490181
 10
-247.5469347198878
 20
-119.4856612881956
 10
-240.1388013517225
 20
-119.4856612881956
 10
-233.4649963248508
 20
-119.4748952273728
 10
-236.8018988382867
 20
-113.7151218482452
 10
-240.5167661636871
 20
-107.3201508805807
 10
-244.5231931705094
 20
-100.3976429326068
 10
-248.7888125152954
 20
-93.04451560538977
 10
-253.2596094646243
 20
-85.3468743318484
 10
-257.8599910561034
 20
-77.41237972020883
 10
-262.5467777781249
 20
-69.33792631787439
 10
-264.0910504767675
 20
-66.66796628752043
 10
-264.0910504767675
 20
-66.66796628752043
 10
-264.274626798675
 20
-66.62490204422984
 10
-268.5726365405828
 20
-69.10107297977619
 10
-270.0628945058044
 20
-66.53877355764868
 10
-265.7648847638967
 20
-64.05183656127985
 10
-265.7108930841396
 20
-63.87957958811721
 10
-267.2551657827822
 20
-61.20964261142688
 10
-271.9419294511407
 20
-53.12442314826997
 10
-276.553123210769
 20
-45.20069459745257
 10
-281.0131079919484
 20
-37.50305332391119
 10
-285.2679382222486
 20
-30.14990294303114
 10
-289.2851773972203
 20
-23.22741804872022
 10
-293.0000447226204
 20
-16.83244708105607
 10
-296.3477363505424
 20
-11.06190764110565
  0
LWPOLYLINE
  5
81
330
70
100
AcDbEntity
  8
Capa 1
 62
     1
370
     9
100
AcDbPolyline
 90
        6
 70
     0
 43
0.0
 10
-326.8981975400665
 20
-63.92264383140779
 10
-326.8549949747953
 20
-64.10568991905655
 10
-322.5461730647381
 20
-66.57107174011613
 10
-324.0256419154742
 20
-69.13337116224397
 10
-328.3344638255311
 20
-66.65720022669794
 10
-328.5180401474383
 20
-66.71103053081101
  0
LWPOLYLINE
  5
82
330
70
100
AcDbEntity
  8
Capa 1
 62
     1
370
     9
100
AcDbPolyline
 90
       43
 70
     0
 43
0.0
 10
-107.85067914459
 20
-119.3887667407916
 10
-104.5137996848174
 20
-113.6182273008412
 10
-100.8097214739031
 20
-107.2232563331771
 10
-96.80331752074454
 20
-100.2899823243803
 10
-92.54848729044461
 20
-92.93685499716364
 10
-88.09926857008768
 20
-85.22844766279945
 10
-83.50969914675806
 20
-77.29395305115957
 10
-78.83372459288604
 20
-69.20873358800264
 10
-77.28945189424376
 20
-66.53877355764868
 10
-77.34344357400075
 20
-66.35575052366355
 10
-81.64147636957187
 20
-63.89036870260333
 10
-80.1619844651724
 20
-61.31730321965334
 10
-75.86399777692858
 20
-63.79345110153604
 10
-75.66960928687158
 20
-63.73964385108631
 10
-74.1361257027151
 20
-61.06968382073234
 10
-69.4601511488431
 20
-52.99523041839822
 10
-64.87058172551346
 20
-45.04996974593553
 10
-60.41057389067073
 20
-37.35232847239416
 10
-56.1557436603708
 20
-29.9884120306913
 10
-52.14929359988488
 20
-23.0659271363807
 10
-48.45605061078369
 20
-16.66019010789374
 10
-45.11912504368449
 20
-10.90041672876582
 10
-51.80376529236871
 20
-10.90041672876582
 10
-59.20108649238417
 20
-10.91118278958862
 10
-67.22477572784183
 20
-10.91118278958862
 10
-75.74517919560084
 20
-10.92194885041111
 10
-84.66519486528696
 20
-10.92194885041111
 10
-93.85516893375934
 20
-10.93271491123391
 10
-103.2179071559891
 20
-10.93271491123391
 10
-106.3064525532743
 20
-10.9434809720564
 10
-106.4360141417612
 20
-11.07267370192814
 10
-106.4360141417612
 20
-16.02499251935719
 10
-109.4057409577187
 20
-16.02499251935719
 10
-109.4057409577187
 20
-11.07267370192814
 10
-109.5353486535323
 20
-10.9434809720564
 10
-112.6346831653033
 20
-10.9434809720564
 10
-121.9866322730479
 20
-10.9542470328792
 10
-131.1873954560065
 20
-10.9542470328792
 10
-140.0966220112051
 20
-10.96501309370169
 10
-148.6170254789641
 20
-10.96501309370169
 10
-156.6407147144218
 20
-10.97577915452449
 10
-164.0488480825867
 20
-10.97577915452449
 10
-170.7334422239449
 20
-10.98654521534698
  0
LWPOLYLINE
  5
83
330
70
100
AcDbEntity
  8
Capa 1
 62
     1
370
     9
100
AcDbPolyline
 90
        7
 70
     0
 43
0.0
 10
-140.0966220112051
 20
-63.79345110153604
 10
-140.0966220112051
 20
-63.79345110153604
 10
-139.9130226356346
 20
-63.83651534482662
 10
-135.6149898400635
 20
-61.36036746294392
 10
-134.1247549285055
 20
-63.92264383140779
 10
-138.4335307312351
 20
-66.39881476695413
 10
-138.4767332965066
 20
-66.58183780093927
  0
LWPOLYLINE
  5
84
330
70
100
AcDbEntity
  8
Capa 1
 62
     1
370
     9
100
AcDbPolyline
 90
       44
 70
     0
 43
0.0
 10
-233.4649963248508
 20
-119.4748952273728
 10
-226.7804021834929
 20
-119.4748952273728
 10
-219.3722688153283
 20
-119.4641291665503
 10
-211.3485795798703
 20
-119.4641291665503
 10
-202.828153058448
 20
-119.4533631057275
 10
-193.9189495569116
 20
-119.4533631057275
 10
-184.7181863739531
 20
-119.442597044905
 10
-175.3662142125458
 20
-119.4318309840822
 10
-172.2669027544378
 20
-119.4318309840822
 10
-172.1373181122879
 20
-119.3026382542105
 10
-172.148107226774
 20
-114.3503194367814
 10
-169.1783804108162
 20
-114.3503194367814
 10
-169.1675912963301
 20
-119.291872193388
 10
-169.0379836005165
 20
-119.4318309840822
 10
-165.949461256895
 20
-119.4318309840822
 10
-156.5867230346648
 20
-119.4210649232597
 10
-147.3859598517066
 20
-119.4210649232597
 10
-138.4767332965066
 20
-119.4102988624369
 10
-129.956329828748
 20
-119.4102988624369
 10
-121.9326405932903
 20
-119.3995328016145
 10
-114.5244841714617
 20
-119.3995328016145
 10
-107.85067914459
 20
-119.3887667407916
 10
-111.1876047116892
 20
-113.628993361664
 10
-114.9024720370899
 20
-107.2340223939995
 10
-118.9089220975752
 20
-100.3115144460256
 10
-123.1853305568474
 20
-92.95838711880925
 10
-127.6453383916908
 20
-85.26074584526723
 10
-132.2456969295062
 20
-77.32625123362734
 10
-136.9325067051907
 20
-69.25179783129323
 10
-138.4767332965066
 20
-66.58183780093927
 10
-138.4767332965066
 20
-66.58183780093927
 10
-138.6603326720775
 20
-66.53877355764868
 10
-142.9583193603219
 20
-69.01494449319503
 10
-144.4486003792072
 20
-66.45264507106752
 10
-140.1506136909628
 20
-63.96570807469869
 10
-140.0966220112051
 20
-63.79345110153604
 10
-141.6408486025214
 20
-61.12351412484573
 10
-146.3276583782059
 20
-53.04906072251129
 10
-150.9388060305078
 20
-45.11456611087139
 10
-155.3988138653505
 20
-37.41692483733003
 10
-159.6644332101369
 20
-30.06377445644998
 10
-163.6708832706232
 20
-23.14128956213906
 10
-167.3857505960229
 20
-16.7463185944749
 10
-170.7334422239449
 20
-10.98654521534698
  0
LWPOLYLINE
  5
85
330
70
100
AcDbEntity
  8
Capa 1
 62
     1
370
     9
100
AcDbPolyline
 90
        6
 70
     0
 43
0.0
 10
-201.2839034134687
 20
-63.83651534482662
 10
-201.2407008481972
 20
-64.0195614324754
 10
-196.9318789381403
 20
-66.48494325353562
 10
-198.4113477888761
 20
-69.04724267566281
 10
-202.7201696989334
 20
-66.58183780093927
 10
-202.9037460208409
 20
-66.62490204422984
  0
LWPOLYLINE
  5
86
330
70
100
AcDbEntity
  8
Capa 1
 62
     1
370
     9
100
AcDbPolyline
 90
       43
 70
     0
 43
0.0
 10
17.76361498200746
 20
-119.3026382542105
 10
21.10049444178001
 20
-113.5320988142604
 10
24.80457265269429
 20
-107.1371278465959
 10
28.81097660585292
 20
-100.2038768914625
 10
33.06580683615285
 20
-92.85072651058248
 10
37.51502555650977
 20
-85.15308523704078
 10
42.10459497983973
 20
-77.20782456457842
 10
46.78056953371142
 20
-69.12260510142148
 10
48.32484223235369
 20
-66.45264507106752
 10
48.2708505525967
 20
-66.26964509074572
 10
43.97281775702559
 20
-63.80424021602218
 10
45.45230966142506
 20
-61.24194079389466
 10
49.75029634966888
 20
-63.70734566861853
 10
49.93389572524007
 20
-63.66428142532763
 10
51.47816842388234
 20
-60.98355533415118
 10
56.15414297775435
 20
-52.90910193181674
 10
60.743712401084
 20
-44.96384125935437
 10
65.20372023592738
 20
-37.266199985813
 10
69.45855046622729
 20
-29.90228354411014
 10
73.4650005267129
 20
-22.97979864979954
 10
77.15824351581376
 20
-16.58482768213507
 10
80.4951690829136
 20
-10.81428824218465
 10
73.81052883422874
 20
-10.81428824218465
 10
66.41320763421328
 20
-10.82505430300746
 10
58.38951839875562
 20
-10.82505430300746
 10
49.86911493099661
 20
-10.83582036382995
 10
40.9490992613105
 20
-10.83582036382995
 10
31.75912519283876
 20
-10.84658642465275
 10
22.39638697060828
 20
-10.85735248547524
 10
19.30784157332308
 20
-10.85735248547524
 10
19.17827998483619
 20
-10.98654521534698
 10
19.17827998483619
 20
-15.93886403277603
 10
16.20855316887873
 20
-15.93886403277603
 10
16.20855316887873
 20
-10.98654521534698
 10
16.06815635857936
 20
-10.85735248547524
 10
12.97961096129416
 20
-10.85735248547524
 10
3.616872739063694
 20
-10.86811854629804
 10
-5.57310132940869
 20
-10.86811854629804
 10
-14.48228177728106
 20
-10.87888460712053
 10
-23.01352046685318
 20
-10.87888460712053
 10
-31.02642058782502
 20
-10.88965066794333
 10
-38.4345309023263
 20
-10.88965066794333
 10
-45.11912504368449
 20
-10.90041672876582
  0
LWPOLYLINE
  5
87
330
70
100
AcDbEntity
  8
Capa 1
 62
     1
370
     9
100
AcDbPolyline
 90
        7
 70
     0
 43
0.0
 10
-14.48228177728106
 20
-63.70734566861853
 10
-14.48228177728106
 20
-63.70734566861853
 10
-14.29872850903716
 20
-63.75038685824546
 10
-10.00069571346605
 20
-61.27423897636276
 10
-8.521249916393882
 20
-63.83651534482662
 10
-12.81923660463833
 20
-66.31268628037297
 10
-12.86243916990952
 20
-66.4957093143581
  0
LWPOLYLINE
  5
88
330
70
100
AcDbEntity
  8
Capa 1
 62
     1
370
     9
100
AcDbPolyline
 90
       44
 70
     0
 43
0.0
 10
-107.85067914459
 20
-119.3887667407916
 10
-101.1660850032324
 20
-119.3887667407916
 10
-93.75797468873052
 20
-119.3780006799691
 10
-85.73428545327351
 20
-119.3780006799691
 10
-77.2138358781872
 20
-119.3672346191464
 10
-68.30465543031419
 20
-119.3672346191464
 10
-59.1146813618418
 20
-119.3564685583239
 10
-49.75194313961197
 20
-119.345702497501
 10
-46.66339774232677
 20
-119.345702497501
 10
-46.5230009320274
 20
-119.2165328212926
 10
-46.53383615383988
 20
-114.2641909502003
 10
-43.56410933788242
 20
-114.2641909502003
 10
-43.55327411606931
 20
-119.2165328212926
 10
-43.42371252758305
 20
-119.345702497501
 10
-40.33516713029785
 20
-119.345702497501
 10
-30.97242890806739
 20
-119.3349364366786
 10
-21.782454839595
 20
-119.3349364366786
 10
-12.86243916990952
 20
-119.3241703758558
 10
-4.342035702150515
 20
-119.3241703758558
 10
3.681653533307144
 20
-119.3134043150333
 10
11.08980995513571
 20
-119.3134043150333
 10
17.76361498200746
 20
-119.3026382542105
 10
14.42668941490826
 20
-113.5428648750826
 10
10.71182208950752
 20
-107.1478939074184
 10
6.694582914535786
 20
-100.2254090131078
 10
2.42896356975005
 20
-92.87225863222808
 10
-2.031044265092688
 20
-85.17461735868607
 10
-6.631402802908781
 20
-77.24012274704619
 10
-11.3181664712666
 20
-69.16566934471207
 10
-12.86243916990952
 20
-66.4957093143581
 10
-12.87322828439533
 20
-66.4957093143581
 10
-13.04603854548007
 20
-66.45264507106752
 10
-17.34402523372452
 20
-68.92881600661356
 10
-18.83430625260981
 20
-66.36651658448603
 10
-14.53631956436535
 20
-63.89036870260333
 10
-14.48228177728106
 20
-63.70734566861853
 10
-16.03734359040979
 20
-61.03738563826457
 10
-20.72415336609491
 20
-52.96293223593013
 10
-25.324511903911
 20
-45.02843762429024
 10
-29.78451973875374
 20
-37.33079635074887
 10
-34.05013908353948
 20
-29.97764596986849
 10
-38.06737825851121
 20
-23.05516107555789
 10
-41.77145646942518
 20
-16.66019010789374
 10
-45.11912504368449
 20
-10.90041672876582
  0
LWPOLYLINE
  5
89
330
70
100
AcDbEntity
  8
Capa 1
 62
     1
370
     9
100
AcDbPolyline
 90
        6
 70
     0
 43
0.0
 10
-75.66960928687158
 20
-63.75038685824546
 10
-75.62640672160039
 20
-63.93343294589392
 10
-71.31758481154347
 20
-66.39881476695413
 10
-72.7970767159423
 20
-68.96111418908166
 10
-77.10585251867256
 20
-66.4957093143581
 10
-77.28945189424376
 20
-66.54953961847117
  0
LWPOLYLINE
  5
8A
330
70
100
AcDbEntity
  8
Capa 1
 62
     1
370
     9
100
AcDbPolyline
 90
       43
 70
     0
 43
0.0
 10
143.3779091086049
 20
-119.2165328212926
 10
146.7147885683774
 20
-113.4459703276792
 10
150.4188667792917
 20
-107.0510224136787
 10
154.4253168397777
 20
-100.1285144657038
 10
158.6693118482645
 20
-92.76459802400099
 10
163.1293196831072
 20
-85.06695675045962
 10
167.7188891064369
 20
-77.12169607799724
 10
172.3948636603089
 20
-69.03647661484033
 10
173.9391363589518
 20
-66.36651658448603
 10
173.8851446791941
 20
-66.18351660416457
 10
169.5763227691372
 20
-63.71811172944101
 10
171.0666037880225
 20
-61.15581230731351
 10
175.3645904762663
 20
-63.62121718203705
 10
175.5481898518375
 20
-63.57815293874647
 10
177.0924625504798
 20
-60.90819290839283
 10
181.7684371043518
 20
-52.82297344523558
 10
186.3580065276814
 20
-44.8777127727732
 10
190.8072252480384
 20
-37.18007149923152
 10
195.0728445928247
 20
-29.82692111835146
 10
199.07929465331
 20
-22.89367016321806
 10
202.7725376424119
 20
-16.4986991955539
 10
206.1094632095111
 20
-10.72815975560349
 10
199.4248229608262
 20
-10.72815975560349
 10
192.0167126463249
 20
-10.73892581642598
 10
184.0038125253531
 20
-10.73892581642598
 10
175.4834090575941
 20
-10.74969187724879
 10
166.5633933879079
 20
-10.74969187724879
 10
157.3734193194362
 20
-10.76045793807127
 10
148.0106810972057
 20
-10.77122399889407
 10
144.9221356999205
 20
-10.77122399889407
 10
144.7925741114342
 20
-10.90041672876582
 10
144.7925741114342
 20
-15.85273554619487
 10
141.8228472954762
 20
-15.85273554619487
 10
141.8228472954762
 20
-10.91118278958862
 10
141.6824504851768
 20
-10.77122399889407
 10
138.5939050878916
 20
-10.77122399889407
 10
129.2311668656611
 20
-10.78199005971688
 10
120.0411927971894
 20
-10.78199005971688
 10
111.1320123493164
 20
-10.79275612053937
 10
102.6007736597442
 20
-10.79275612053937
 10
94.58787353877308
 20
-10.80352218136217
 10
87.17976322427116
 20
-10.80352218136217
 10
80.4951690829136
 20
-10.81428824218465
  0
LWPOLYLINE
  5
8B
330
70
100
AcDbEntity
  8
Capa 1
 62
     1
370
     9
100
AcDbPolyline
 90
        7
 70
     0
 43
0.0
 10
111.1320123493164
 20
-63.62121718203705
 10
111.1320123493164
 20
-63.62121718203705
 10
111.3155656175603
 20
-63.66428142532763
 10
115.6135984131314
 20
-61.1881104897816
 10
117.0930442102035
 20
-63.75038685824546
 10
112.7950575219591
 20
-66.2373238546143
 10
112.7518549566886
 20
-66.40958082777695
  0
LWPOLYLINE
  5
8C
330
70
100
AcDbEntity
  8
Capa 1
 62
     1
370
     9
100
AcDbPolyline
 90
       44
 70
     0
 43
0.0
 10
17.76361498200746
 20
-119.3026382542105
 10
24.44820912336566
 20
-119.3026382542105
 10
31.85631943786694
 20
-119.3026382542105
 10
39.88000867332459
 20
-119.291872193388
 10
48.40045824841025
 20
-119.2811061325652
 10
57.30963869628326
 20
-119.2811061325652
 10
66.49961276475565
 20
-119.2703400717424
 10
75.86235098698548
 20
-119.2703400717424
 10
78.95089638427068
 20
-119.2595740109199
 10
79.09129319457068
 20
-119.1304043347115
 10
79.08045797275758
 20
-114.1780624636191
 10
82.05018478871505
 20
-114.1780624636191
 10
82.06102001052814
 20
-119.1304043347115
 10
82.19058159901505
 20
-119.2595740109199
 10
85.27912699629959
 20
-119.2595740109199
 10
94.64186521853006
 20
-119.2488079500974
 10
103.8318392870024
 20
-119.2488079500974
 10
112.7518549566886
 20
-119.2380649429379
 10
121.2722584244469
 20
-119.2380649429379
 10
129.2959476599046
 20
-119.2272758284518
 10
136.6932688599201
 20
-119.2272758284518
 10
143.3779091086049
 20
-119.2165328212926
 10
140.0409835415057
 20
-113.4567363885014
 10
136.3261162161056
 20
-107.0617654208372
 10
132.3088770411338
 20
-100.1392805265266
 10
128.0432576963475
 20
-92.7861301456466
 10
123.5832498615047
 20
-85.09925493292772
 10
118.9828913236887
 20
-77.15399426046502
 10
114.2961276553308
 20
-69.07954085813091
 10
112.7518549566886
 20
-66.40958082777695
 10
112.7410658422021
 20
-66.40958082777695
 10
112.5574664666315
 20
-66.36651658448603
 10
108.2594336710604
 20
-68.8426875200324
 10
106.7799878739876
 20
-66.28038809790488
 10
111.0779745622321
 20
-63.80424021602218
 10
111.1320123493164
 20
-63.62121718203705
 10
109.5769505361877
 20
-60.95125715168308
 10
104.8901407605025
 20
-52.87680374934897
 10
100.2897822226871
 20
-44.94230913770876
 10
95.82977438784372
 20
-37.24466786416771
 10
91.56415504305797
 20
-29.89151748328733
 10
87.54691586808624
 20
-22.96903258897673
 10
83.84283765717196
 20
-16.58482768213507
 10
80.4951690829136
 20
-10.81428824218465
  0
LWPOLYLINE
  5
8D
330
70
100
AcDbEntity
  8
Capa 1
 62
     1
370
     9
100
AcDbPolyline
 90
        6
 70
     0
 43
0.0
 10
49.94468483972588
 20
-63.66428142532763
 10
49.98788740499707
 20
-63.84730445931276
 10
54.29670931505462
 20
-66.31268628037297
 10
52.81721741065515
 20
-68.88575176332297
 10
48.50844160792489
 20
-66.40958082777695
 10
48.32484223235369
 20
-66.46341113189001
  0
LWPOLYLINE
  5
8E
330
70
100
AcDbEntity
  8
Capa 1
 62
     1
370
     9
100
AcDbPolyline
 90
       44
 70
     0
 43
0.0
 10
-484.6827839367273
 20
-119.6471522005354
 10
-481.3458871867079
 20
-125.406925579663
 10
-477.6310198613078
 20
-131.8018965473275
 10
-473.624581327655
 20
-138.7243929684699
 10
-469.3589677462828
 20
-146.0775318225182
 10
-464.8881707969551
 20
-153.7751730960598
 10
-460.2877834420588
 20
-161.7096792345313
 10
-455.6010024834533
 20
-169.7841326368654
 10
-454.0567413116432
 20
-172.4540811403875
 10
-454.0567413116432
 20
-172.4540811403875
 10
-453.8731592263205
 20
-172.4971453836784
 10
-449.5751437209963
 20
-170.0209744481324
 10
-448.0848857557741
 20
-172.5832738702599
 10
-452.3828954976831
 20
-175.0701993397969
 10
-452.4368871774405
 20
-175.2424563129592
 10
-450.8926260056268
 20
-177.9124163433129
 10
-446.2058508104401
 20
-185.9976358064701
 10
-441.605469218959
 20
-193.9213643572875
 10
-437.1346607427977
 20
-201.6190056308289
 10
-432.8798535661636
 20
-208.9721444848775
 10
-428.8626143911913
 20
-215.8946524328511
 10
-425.1477470657912
 20
-222.2896003468516
 10
-421.8108445523527
 20
-228.060162840466
 10
-418.4739420389179
 20
-222.2788342860301
 10
-414.7698753548341
 20
-215.8838863720289
 10
-410.7634368211813
 20
-208.9613784240547
 10
-406.5086181177135
 20
-201.5974735091833
 10
-402.0594224510218
 20
-193.8998322356422
 10
-397.4590408595405
 20
-185.9545715631792
 10
-392.7938554201556
 20
-177.8693521000223
 10
-391.2495942483458
 20
-175.1993920696687
 10
-391.3035859281031
 20
-175.0163690356835
 10
-395.6016071968424
 20
-172.5509756877915
 10
-394.1221383461059
 20
-169.988676265664
 10
-389.8133279628808
 20
-172.4540811403875
 10
-389.6297401141392
 20
-172.4110168970969
 10
-388.0854789423294
 20
-169.7410683935748
 10
-383.4095043884587
 20
-161.6558489304179
 10
-378.8199119114631
 20
-153.7105882579552
 10
-374.3707162447715
 20
-146.0129354575823
 10
-370.1158975413037
 20
-138.6597966035338
 10
-366.1094590076473
 20
-131.7265341215688
 10
-362.4161929648828
 20
-125.3315746807362
 10
-359.0792904514482
 20
-119.5610237139543
  0
LINE
  5
8F
330
70
100
AcDbEntity
  8
Capa 1
 62
     1
370
     9
100
AcDbLine
 10
-423.3659063654824
 20
-119.7440467479391
 30
0.0
 11
-423.4954910076327
 21
-119.6040879572449
 31
0.0
  0
LWPOLYLINE
  5
90
330
70
100
AcDbEntity
  8
Capa 1
 62
     1
370
     9
100
AcDbPolyline
 90
        4
 70
     0
 43
0.0
 10
-420.3961680226932
 20
-119.7332806871166
 10
-420.3961680226932
 20
-124.6856110313775
 10
-423.355105724166
 20
-124.6856110313775
 10
-423.3659063654824
 20
-119.7440467479391
  0
LINE
  5
91
330
70
100
AcDbEntity
  8
Capa 1
 62
     1
370
     9
100
AcDbLine
 10
-420.2665833805429
 20
-119.6040879572449
 30
0.0
 11
-420.3961680226932
 21
-119.7332806871166
 31
0.0
  0
LINE
  5
92
330
70
100
AcDbEntity
  8
Capa 1
 62
     1
370
     9
100
AcDbLine
 10
-297.7516122388853
 20
-119.6579182613579
 30
0.0
 11
-297.8811968810356
 21
-119.5179594706637
 31
0.0
  0
LWPOLYLINE
  5
93
330
70
100
AcDbEntity
  8
Capa 1
 62
     1
370
     9
100
AcDbPolyline
 90
        4
 70
     0
 43
0.0
 10
-294.7818854229275
 20
-119.6579182613579
 10
-294.7818854229275
 20
-124.599482544796
 10
-297.7408000707359
 20
-124.599482544796
 10
-297.7516122388853
 20
-119.6579182613579
  0
LINE
  5
94
330
70
100
AcDbEntity
  8
Capa 1
 62
     1
370
     9
100
AcDbLine
 10
-294.6523007807776
 20
-119.5179594706637
 30
0.0
 11
-294.7818854229275
 21
-119.6579182613579
 31
0.0
  0
LWPOLYLINE
  5
95
330
70
100
AcDbEntity
  8
Capa 1
 62
     1
370
     9
100
AcDbPolyline
 90
       22
 70
     0
 43
0.0
 10
-296.1965504257566
 20
-227.9740343538848
 10
-292.8596479123211
 20
-222.1927057994489
 10
-289.1555927550701
 20
-215.8085239462699
 10
-285.1491426945841
 20
-208.8752499374735
 10
-280.8943355179479
 20
-201.5113450226021
 10
-276.4451167975912
 20
-193.8137037490611
 10
-271.8555473742613
 20
-185.8684430765981
 10
-267.1795728203893
 20
-177.7939896742639
 10
-265.6353001217467
 20
-175.1132635830875
 10
-265.689291801504
 20
-174.9302520759342
 10
-269.9873015434118
 20
-172.4648472012106
 10
-268.507832692676
 20
-169.9025593059149
 10
-264.2098229507682
 20
-172.3787187146295
 10
-264.0154575143745
 20
-172.3248884105158
 10
-262.4819739302181
 20
-169.6549399069937
 10
-257.805999376346
 20
-161.5697204438367
 10
-253.2164299530164
 20
-153.6244597713747
 10
-248.7564221181737
 20
-145.9375730318236
 10
-244.5015918878738
 20
-138.5736681169526
 10
-240.4951648810515
 20
-131.6404056349874
 10
-236.8018988382867
 20
-125.245446194155
 10
-233.4649963248508
 20
-119.4748952273728
  0
LWPOLYLINE
  5
96
330
70
100
AcDbEntity
  8
Capa 1
 62
     1
370
     9
100
AcDbPolyline
 90
        7
 70
     0
 43
0.0
 10
-328.4424471850455
 20
-172.3679526538063
 10
-328.4424471850455
 20
-172.3679526538063
 10
-328.2588708631382
 20
-172.4110168970969
 10
-323.9608611212304
 20
-169.9348574883827
 10
-322.4705801023451
 20
-172.4971453836784
 10
-326.7685898442526
 20
-174.9840823800473
 10
-326.8226045776736
 20
-175.1670938872005
  0
LWPOLYLINE
  5
97
330
70
100
AcDbEntity
  8
Capa 1
 62
     1
370
     9
100
AcDbPolyline
 90
       44
 70
     0
 43
0.0
 10
-421.8108445523527
 20
-228.060162840466
 10
-415.1262504109977
 20
-228.0493967796431
 10
-407.7181170428296
 20
-228.0493967796431
 10
-399.6944393342045
 20
-228.0386307188203
 10
-391.1740012859525
 20
-228.0386307188203
 10
-382.2540086699301
 20
-228.0278646579975
 10
-373.064034601457
 20
-228.0278646579975
 10
-363.7120739668815
 20
-228.017098597176
 10
-360.612750981942
 20
-228.017098597176
 10
-360.4831663397915
 20
-227.8771398064808
 10
-360.4939669811078
 20
-222.9247979353881
 10
-357.5242286383186
 20
-222.9247979353881
 10
-357.5134279970025
 20
-227.8771398064808
 10
-357.3838433548523
 20
-228.017098597176
 10
-354.2953325380629
 20
-228.0063325363532
 10
-344.9325712621681
 20
-228.0063325363532
 10
-335.7317850255469
 20
-227.9955664755304
 10
-326.8226045776736
 20
-227.9955664755304
 10
-318.3021550025876
 20
-227.9848004147076
 10
-310.2784888207936
 20
-227.9848004147076
 10
-302.8703554526286
 20
-227.9740343538848
 10
-296.1965504257566
 20
-227.9740343538848
 10
-299.5334529391925
 20
-222.2034718602704
 10
-303.2483202645932
 20
-215.8085239462699
 10
-307.2547472714152
 20
-208.8860159982963
 10
-311.5203666162012
 20
-201.5328771442478
 10
-315.9911635655301
 20
-193.8460019315288
 10
-320.5915451570092
 20
-185.9115073198886
 10
-325.278331879031
 20
-177.8262878567317
 10
-326.8226045776736
 20
-175.1670938872005
 10
-326.8226045776736
 20
-175.1563278263781
 10
-327.0061808995808
 20
-175.1132635830875
 10
-331.3041906414885
 20
-177.5894345186338
 10
-332.7944486067112
 20
-175.0271350965063
 10
-328.4964388648028
 20
-172.5509756877915
 10
-328.4424471850455
 20
-172.3679526538063
 10
-329.9867198836881
 20
-169.7087702111073
 10
-334.6734835520462
 20
-161.6235507479501
 10
-339.2846773116747
 20
-153.6890561363102
 10
-343.7446620928545
 20
-146.0021693967595
 10
-347.9994923231544
 20
-138.6382644818885
 10
-352.0167314981261
 20
-131.715768060746
 10
-355.7315872966938
 20
-125.3315746807362
 10
-359.0792904514482
 20
-119.5610237139543
  0
LWPOLYLINE
  5
98
330
70
100
AcDbEntity
  8
Capa 1
 62
     1
370
     9
100
AcDbPolyline
 90
        6
 70
     0
 43
0.0
 10
-389.6297401141392
 20
-172.4110168970969
 10
-389.5865490757015
 20
-172.5940399310821
 10
-385.2777386924767
 20
-175.0701993397969
 10
-386.7571960163791
 20
-177.6324987619241
 10
-391.0660179264379
 20
-175.1563278263781
 10
-391.2495942483458
 20
-175.2101581304915
  0
LINE
  5
99
330
70
100
AcDbEntity
  8
Capa 1
 62
     1
370
     9
100
AcDbLine
 10
-172.1373181122879
 20
-119.5717897747768
 30
0.0
 11
-172.2669027544378
 21
-119.4318309840822
 31
0.0
  0
LWPOLYLINE
  5
9A
330
70
100
AcDbEntity
  8
Capa 1
 62
     1
370
     9
100
AcDbPolyline
 90
        4
 70
     0
 43
0.0
 10
-169.1675912963301
 20
-119.5717897747768
 10
-169.1675912963301
 20
-124.5133540582148
 10
-172.1373181122879
 20
-124.5241201190376
 10
-172.1373181122879
 20
-119.5717897747768
  0
LINE
  5
9B
330
70
100
AcDbEntity
  8
Capa 1
 62
     1
370
     9
100
AcDbLine
 10
-169.0379836005165
 20
-119.4318309840822
 30
0.0
 11
-169.1675912963301
 21
-119.5717897747768
 31
0.0
  0
LWPOLYLINE
  5
9C
330
70
100
AcDbEntity
  8
Capa 1
 62
     1
370
     9
100
AcDbPolyline
 90
       22
 70
     0
 43
0.0
 10
-170.5822562991591
 20
-227.8879058673036
 10
-167.2453537857236
 20
-222.1173664273536
 10
-163.5412986284723
 20
-215.7223954596887
 10
-159.53487162165
 20
-208.7891214508923
 10
-155.2800413913501
 20
-201.425216536021
 10
-150.8308226709931
 20
-193.7275752624799
 10
-146.2412532476635
 20
-185.7930806508403
 10
-141.5652786937915
 20
-177.7078611876828
 10
-140.0210059951492
 20
-175.0379011573291
 10
-140.0749976749062
 20
-174.8548896501755
 10
-144.3730304704773
 20
-172.3787187146295
 10
-142.8935385660788
 20
-169.8164308193338
 10
-138.5955518778341
 20
-172.292590228048
 10
-138.4011633877771
 20
-172.2387599239346
 10
-136.86767980362
 20
-169.5688114204125
 10
-132.1917052497492
 20
-161.4835919572555
 10
-127.6021358264196
 20
-153.5490973456156
 10
-123.1421279915762
 20
-145.8514445452425
 10
-118.8872977612763
 20
-138.4875511572032
 10
-114.880847700791
 20
-131.5542771484068
 10
-111.1876047116892
 20
-125.1593177075739
 10
-107.85067914459
 20
-119.3887667407916
  0
LWPOLYLINE
  5
9D
330
70
100
AcDbEntity
  8
Capa 1
 62
     1
370
     9
100
AcDbPolyline
 90
        7
 70
     0
 43
0.0
 10
-202.828153058448
 20
-172.2818241672252
 10
-202.828153058448
 20
-172.2818241672252
 10
-202.6445767365404
 20
-172.3356544713386
 10
-198.3465669946326
 20
-169.8594950626244
 10
-196.8562859757474
 20
-172.4217829579197
 10
-201.1651078858046
 20
-174.8979538934661
 10
-201.2083104510758
 20
-175.08096540062
  0
LWPOLYLINE
  5
9E
330
70
100
AcDbEntity
  8
Capa 1
 62
     1
370
     9
100
AcDbPolyline
 90
       44
 70
     0
 43
0.0
 10
-296.1965504257566
 20
-227.9740343538848
 10
-289.5119562843987
 20
-227.963268293062
 10
-282.1038229162338
 20
-227.963268293062
 10
-274.0801336807765
 20
-227.9525022322392
 10
-265.5597071593538
 20
-227.9525022322392
 10
-256.6505036578171
 20
-227.9417361714164
 10
-247.4605295893451
 20
-227.9417361714164
 10
-238.0977683134516
 20
-227.9309701105948
 10
-234.9984568553439
 20
-227.9309701105948
 10
-234.8688722131937
 20
-227.7910113198997
 10
-234.8796613276798
 20
-222.838669448807
 10
-231.9099345117224
 20
-222.838669448807
 10
-231.8991453972359
 20
-227.7910113198997
 10
-231.7695377014224
 20
-227.9309701105948
 10
-228.6810153578008
 20
-227.9309701105948
 10
-219.3182771355707
 20
-227.920204049772
 10
-210.1174908989488
 20
-227.9094379889492
 10
-201.2083104510758
 20
-227.9094379889492
 10
-192.6878608759901
 20
-227.8986719281264
 10
-184.6641946941958
 20
-227.8986719281264
 10
-177.2560613260308
 20
-227.8879058673036
 10
-170.5822562991591
 20
-227.8879058673036
 10
-173.919158812595
 20
-222.1173664273536
 10
-177.6340261379954
 20
-215.7223954596887
 10
-181.6404531448177
 20
-208.8106535725373
 10
-185.9168846577535
 20
-201.4467486576666
 10
-190.3768694389326
 20
-193.7598734449477
 10
-194.9772510304117
 20
-185.8253788333075
 10
-199.6640377524332
 20
-177.7401593701505
 10
-201.2083104510758
 20
-175.08096540062
 10
-201.2083104510758
 20
-175.08096540062
 10
-201.3918867729837
 20
-175.0271350965063
 10
-205.6898965148911
 20
-177.5033060320527
 10
-207.1801544801128
 20
-174.9410181367567
 10
-202.8821447382053
 20
-172.4648472012106
 10
-202.828153058448
 20
-172.2818241672252
 10
-204.3724257570906
 20
-169.6226417245258
 10
-209.0591894254487
 20
-161.5374222613689
 10
-213.6703831850773
 20
-153.602927649729
 10
-218.1303679662567
 20
-145.9160409101783
 10
-222.3959873110427
 20
-138.5521359953073
 10
-226.4024373715284
 20
-131.6296395741649
 10
-230.1173046969288
 20
-125.245446194155
 10
-233.4649963248508
 20
-119.4748952273728
  0
LWPOLYLINE
  5
9F
330
70
100
AcDbEntity
  8
Capa 1
 62
     1
370
     9
100
AcDbPolyline
 90
        6
 70
     0
 43
0.0
 10
-264.0154575143745
 20
-172.3248884105158
 10
-263.9722549491033
 20
-172.5079114445009
 10
-259.6634330390464
 20
-174.9840823800473
 10
-261.1429018897823
 20
-177.5463702753436
 10
-265.4517237998391
 20
-175.0701993397969
 10
-265.6353001217467
 20
-175.1240296439103
  0
LINE
  5
A0
330
70
100
AcDbEntity
  8
Capa 1
 62
     1
370
     9
100
AcDbLine
 10
-46.5230009320274
 20
-119.4856612881956
 30
0.0
 11
-46.66339774232677
 21
-119.345702497501
 31
0.0
  0
LWPOLYLINE
  5
A1
330
70
100
AcDbEntity
  8
Capa 1
 62
     1
370
     9
100
AcDbPolyline
 90
        4
 70
     0
 43
0.0
 10
-43.55327411606931
 20
-119.4856612881956
 10
-43.55327411606931
 20
-124.4379916324565
 10
-46.5230009320274
 20
-124.4379916324565
 10
-46.5230009320274
 20
-119.4856612881956
  0
LINE
  5
A2
330
70
100
AcDbEntity
  8
Capa 1
 62
     1
370
     9
100
AcDbLine
 10
-43.42371252758305
 20
-119.345702497501
 30
0.0
 11
-43.55327411606931
 21
-119.4856612881956
 31
0.0
  0
LWPOLYLINE
  5
A3
330
70
100
AcDbEntity
  8
Capa 1
 62
     1
370
     9
100
AcDbPolyline
 90
       22
 70
     0
 43
0.0
 10
-44.96793911889867
 20
-227.8017773807225
 10
-41.63105965912613
 20
-222.0312379407724
 10
-37.92698144821185
 20
-215.6362669731076
 10
-33.92057749505322
 20
-208.7029929643112
 10
-29.67653637923911
 20
-201.339099576272
 10
-25.21652854439637
 20
-193.6414467758981
 10
-20.62695912106673
 20
-185.7069521642585
 10
-15.95098456719472
 20
-177.6217327011016
 10
-14.4067118685518
 20
-174.9517841975795
 10
-14.46070354830944
 20
-174.7687611635944
 10
-18.75873634388054
 20
-172.292590228048
 10
-17.27924443948107
 20
-169.7303023327526
 10
-12.98125775123662
 20
-172.2064617414668
 10
-12.79765837566607
 20
-172.1526314373535
 10
-11.25338567702315
 20
-169.4826829338313
 10
-6.577411123151143
 20
-161.3974634706744
 10
-1.987841699821504
 20
-153.4629688590345
 10
2.461377020535423
 20
-145.7653160586613
 10
6.726996365321158
 20
-138.4014226706221
 10
10.73344642580708
 20
-131.4789147226478
 10
14.42668941490826
 20
-125.0731892209927
 10
17.76361498200746
 20
-119.3026382542105
  0
LWPOLYLINE
  5
A4
330
70
100
AcDbEntity
  8
Capa 1
 62
     1
370
     9
100
AcDbPolyline
 90
        7
 70
     0
 43
0.0
 10
-77.2138358781872
 20
-172.195695680644
 10
-77.2138358781872
 20
-172.195695680644
 10
-77.03028260994329
 20
-172.2495259847574
 10
-72.7322498143722
 20
-169.7733665760432
 10
-71.25280401730002
 20
-172.3356544713386
 10
-75.55079070554383
 20
-174.8118254068849
 10
-75.59399327081502
 20
-174.99484844087
  0
LWPOLYLINE
  5
A5
330
70
100
AcDbEntity
  8
Capa 1
 62
     1
370
     9
100
AcDbPolyline
 90
       44
 70
     0
 43
0.0
 10
-170.5822562991591
 20
-227.8879058673036
 10
-163.8976621578009
 20
-227.8771398064808
 10
-156.489528789636
 20
-227.8771398064808
 10
-148.465839554179
 20
-227.8771398064808
 10
-139.945389979093
 20
-227.866373745658
 10
-131.0362095312203
 20
-227.8556076848352
 10
-121.8462354627479
 20
-227.8556076848352
 10
-112.4834972405181
 20
-227.8448416240124
 10
-109.3949518432329
 20
-227.8448416240124
 10
-109.2545550329329
 20
-227.7048828333185
 10
-109.265390254746
 20
-222.7633070230486
 10
-106.2956634387885
 20
-222.7525409622258
 10
-106.2848282169754
 20
-227.7048828333185
 10
-106.1552666284885
 20
-227.8448416240124
 10
-103.0667212312033
 20
-227.8448416240124
 10
-93.70398300897353
 20
-227.8340755631909
 10
-84.51400894050115
 20
-227.8340755631909
 10
-75.59399327081502
 20
-227.8233095023681
 10
-67.07358980305601
 20
-227.8125434415453
 10
-59.04990056759899
 20
-227.8125434415453
 10
-51.64174414577042
 20
-227.8017773807225
 10
-44.96793911889867
 20
-227.8017773807225
 10
-48.30486468599787
 20
-222.0312379407724
 10
-52.01973201139797
 20
-215.6470330339304
 10
-56.03697118636971
 20
-208.7245250859561
 10
-60.30259053115609
 20
-201.3606316979169
 10
-64.76259836599883
 20
-193.6737449583665
 10
-69.36295690381427
 20
-185.7392503467263
 10
-74.04972057217275
 20
-177.6647969443922
 10
-75.59399327081502
 20
-174.99484844087
 10
-75.60478238530148
 20
-174.99484844087
 10
-75.77759264638654
 20
-174.9410181367567
 10
-80.07557933462971
 20
-177.4171775454709
 10
-81.5658603535153
 20
-174.8548896501755
 10
-77.26787366527149
 20
-172.3787187146295
 10
-77.2138358781872
 20
-172.195695680644
 10
-78.76889769131593
 20
-169.5365132379447
 10
-83.45570746700104
 20
-161.4512937747878
 10
-88.05606600481651
 20
-153.5167991631479
 10
-92.51607383965987
 20
-145.8299124235972
 10
-96.78169318444561
 20
-138.4767850963804
 10
-100.7989323594173
 20
-131.5542771484068
 10
-104.5030105703316
 20
-125.1593177075739
 10
-107.85067914459
 20
-119.3887667407916
  0
LWPOLYLINE
  5
A6
330
70
100
AcDbEntity
  8
Capa 1
 62
     1
370
     9
100
AcDbPolyline
 90
        6
 70
     0
 43
0.0
 10
-138.4011633877771
 20
-172.2387599239346
 10
-138.3579608225059
 20
-172.4217829579197
 10
-134.0491389124489
 20
-174.8979538934661
 10
-135.5286308168484
 20
-177.4602417887628
 10
-139.8374066195781
 20
-174.9840823800473
 10
-140.0210059951492
 20
-175.0379011573291
  0
LINE
  5
A7
330
70
100
AcDbEntity
  8
Capa 1
 62
     1
370
     9
100
AcDbLine
 10
79.09129319457068
 20
-119.3995328016145
 30
0.0
 11
78.95089638427068
 21
-119.2595740109199
 31
0.0
  0
LWPOLYLINE
  5
A8
330
70
100
AcDbEntity
  8
Capa 1
 62
     1
370
     9
100
AcDbPolyline
 90
        4
 70
     0
 43
0.0
 10
82.06102001052814
 20
-119.3995328016145
 10
82.06102001052814
 20
-124.351863145875
 10
79.09129319457068
 20
-124.351863145875
 10
79.09129319457068
 20
-119.3995328016145
  0
LINE
  5
A9
330
70
100
AcDbEntity
  8
Capa 1
 62
     1
370
     9
100
AcDbLine
 10
82.19058159901505
 20
-119.2595740109199
 30
0.0
 11
82.06102001052814
 21
-119.3995328016145
 31
0.0
  0
LWPOLYLINE
  5
AA
330
70
100
AcDbEntity
  8
Capa 1
 62
     1
370
     9
100
AcDbPolyline
 90
       22
 70
     0
 43
0.0
 10
80.64635500769943
 20
-227.7156488941413
 10
83.98323446747133
 20
-221.9451094541912
 10
87.6873126783856
 20
-215.5501384865267
 10
91.69376273887152
 20
-208.61686447773
 10
95.93775774735835
 20
-201.2529710896902
 10
100.3977655822011
 20
-193.5553182893169
 10
104.9873350055307
 20
-185.6208236776774
 10
109.6633095594033
 20
-177.5356042145205
 10
111.2075822580456
 20
-174.8656557109983
 10
111.1535905782886
 20
-174.6826326770132
 10
106.8447686682311
 20
-172.2064617414668
 10
108.3350496871164
 20
-169.6441738461715
 10
112.6330363753608
 20
-172.1203332548857
 10
112.8166357509314
 20
-172.0665029507723
 10
114.3609084495743
 20
-169.3965544472501
 10
119.0368830034463
 20
-161.3113349840932
 10
123.6264524267759
 20
-153.3768403724533
 10
128.0756711471328
 20
-145.6791875720801
 10
132.3412904919186
 20
-138.3152941840406
 10
136.3477405524045
 20
-131.3927977628985
 10
140.0409835415057
 20
-124.9870607344115
 10
143.3779091086049
 20
-119.2165328212926
  0
LWPOLYLINE
  5
AB
330
70
100
AcDbEntity
  8
Capa 1
 62
     1
370
     9
100
AcDbPolyline
 90
        7
 70
     0
 43
0.0
 10
48.40045824841025
 20
-172.1095671940629
 10
48.40045824841025
 20
-172.1203332548857
 10
48.58401151665415
 20
-172.1633974981762
 10
52.88204431222526
 20
-169.6872380894614
 10
54.36149010929807
 20
-172.2495259847574
 10
50.06350342105363
 20
-174.7256969203035
 10
50.02030085578244
 20
-174.9087199542889
  0
LWPOLYLINE
  5
AC
330
70
100
AcDbEntity
  8
Capa 1
 62
     1
370
     9
100
AcDbPolyline
 90
       44
 70
     0
 43
0.0
 10
-44.96793911889867
 20
-227.8017773807225
 10
-38.28334497754048
 20
-227.8017773807225
 10
-30.87523466303921
 20
-227.7910113198997
 10
-22.85154542758155
 20
-227.7910113198997
 10
-14.33109585249588
 20
-227.7802452590769
 10
-5.421915404622871
 20
-227.7694791982541
 10
3.768058663849513
 20
-227.7694791982541
 10
13.13079688607998
 20
-227.7587131374312
 10
16.21934228336454
 20
-227.7587131374312
 10
16.35973909366455
 20
-227.6295204075601
 10
16.34890387185144
 20
-222.6771785364674
 10
19.3186306878089
 20
-222.6771785364674
 10
19.329465909622
 20
-227.6187543467373
 10
19.4590274981089
 20
-227.7587131374312
 10
22.5475728953941
 20
-227.7587131374312
 10
31.91031111762393
 20
-227.7479470766097
 10
41.10028518609631
 20
-227.7479470766097
 10
50.02030085578244
 20
-227.7371810157869
 10
58.54070432354144
 20
-227.7264149549641
 10
66.5643935589991
 20
-227.7264149549641
 10
73.96171475901457
 20
-227.7156488941413
 10
80.64635500769943
 20
-227.7156488941413
 10
77.30942944059957
 20
-221.9451094541912
 10
73.59456211519947
 20
-215.5609045473492
 10
69.57732294022775
 20
-208.6383965993749
 10
65.31170359544137
 20
-201.2852692721586
 10
60.85169576059863
 20
-193.5876164717853
 10
56.25133722278317
 20
-185.6531218601451
 10
51.56457355442504
 20
-177.578668457811
 10
50.02030085578244
 20
-174.9087199542889
 10
50.00951174129598
 20
-174.9087199542889
 10
49.82591236572543
 20
-174.8656557109983
 10
45.52787957015432
 20
-177.3418151197125
 10
44.04843377308215
 20
-174.7795272244171
 10
48.34642046132596
 20
-172.292590228048
 10
48.40045824841025
 20
-172.1095671940629
 10
46.84539643528152
 20
-169.4503847513635
 10
42.15858665959641
 20
-161.3651652882066
 10
37.55822812178096
 20
-153.4414367373892
 10
33.09822028693822
 20
-145.743783937016
 10
28.83260094215184
 20
-138.3906566097993
 10
24.81536176718011
 20
-131.4681486618254
 10
21.11128355626582
 20
-125.0731892209927
 10
17.76361498200746
 20
-119.3026382542105
  0
LWPOLYLINE
  5
AD
330
70
100
AcDbEntity
  8
Capa 1
 62
     1
370
     9
100
AcDbPolyline
 90
        6
 70
     0
 43
0.0
 10
-12.78686926117962
 20
-172.1633974981762
 10
-12.74366669590843
 20
-172.3464205321614
 10
-8.434844785851513
 20
-174.8118254068849
 10
-9.914336690250983
 20
-177.3741133021809
 10
-14.22311249298125
 20
-174.8979538934661
 10
-14.4067118685518
 20
-174.9517841975795
  0
LINE
  5
AE
330
70
100
AcDbEntity
  8
Capa 1
 62
     1
370
     9
100
AcDbLine
 10
-483.1277278870167
 20
-227.963268293062
 30
0.0
 11
-482.998137481451
 21
-228.0924610229344
 31
0.0
  0
LWPOLYLINE
  5
AF
330
70
100
AcDbEntity
  8
Capa 1
 62
     1
370
     9
100
AcDbPolyline
 90
        4
 70
     0
 43
0.0
 10
-486.0974604663905
 20
-227.963268293062
 10
-486.0974604663905
 20
-223.0109264219693
 10
-483.1385285283326
 20
-223.0109264219693
 10
-483.1277278870167
 20
-227.963268293062
  0
LWPOLYLINE
  5
B0
330
70
100
AcDbEntity
  8
Capa 1
 62
     1
370
     9
100
AcDbPolyline
 90
       24
 70
     0
 43
0.0
 10
-484.6827839367273
 20
-119.6471522005354
 10
-488.0196864501623
 20
-125.4176916404858
 10
-491.7237531342464
 20
-131.81266260815
 10
-495.7301916678988
 20
-138.7459250901149
 10
-499.9850103713704
 20
-146.0990639441634
 10
-504.4342089197696
 20
-153.8074712785276
 10
-509.0237956333464
 20
-161.7419774169993
 10
-513.6997759506358
 20
-169.827196880156
 10
-515.2440371224456
 20
-172.4971453836784
 10
-515.1900425609809
 20
-172.6801684176632
 10
-510.8920270556567
 20
-175.1563278263781
 10
-512.3714959063931
 20
-177.7186272485056
 10
-516.6803062896183
 20
-175.2424563129592
 10
-516.8638912566486
 20
-175.2962866170726
 10
-518.408152428462
 20
-177.9662466474263
 10
-523.0841298640405
 20
-186.0407000497604
 10
-527.6629188180087
 20
-193.9859607222234
 10
-532.1229165668736
 20
-201.6836019957644
 10
-536.377734549913
 20
-209.0475069106358
 10
-540.3841738039942
 20
-215.9700148586101
 10
-544.0774412876124
 20
-222.3757288334327
 10
-547.414341009397
 20
-228.1355252662243
 10
-486.2270451085372
 20
-228.0924610229344
 10
-486.0974604663905
 20
-227.963268293062
  0
LWPOLYLINE
  5
B1
330
70
100
AcDbEntity
  8
Capa 1
 62
     1
370
     9
100
AcDbPolyline
 90
        7
 70
     0
 43
0.0
 10
-452.4368871774405
 20
-175.2424563129592
 10
-452.4368871774405
 20
-175.2424563129592
 10
-452.6204750261785
 20
-175.1993920696687
 10
-456.9184847680873
 20
-177.675563005215
 10
-458.4087542601401
 20
-175.1132635830875
 10
-454.110738754816
 20
-172.6371041743727
 10
-454.0567413116432
 20
-172.4540811403875
  0
SPLINE
  5
B2
330
70
100
AcDbEntity
  8
Capa 1
 62
     1
370
     9
100
AcDbSpline
210
0.0
220
0.0
230
1.0
 70
     8
 71
     3
 72
     8
 73
     4
 74
     0
 42
0.0000000001
 43
0.0000000001
 40
0.0
 40
0.0
 40
0.0
 40
0.0
 40
1.0
 40
1.0
 40
1.0
 40
1.0
 10
226.7139976529707
 20
-20.62205438330245
 30
0.0
 10
226.7247867674565
 20
-20.7297149915289
 30
0.0
 10
226.7463649964287
 20
-20.84814166057784
 30
0.0
 10
226.7571541109145
 20
-20.96656832962709
 30
0.0
  0
LWPOLYLINE
  5
B3
330
70
100
AcDbEntity
  8
Capa 1
 62
     1
370
     9
100
AcDbPolyline
 90
        4
 70
     0
 43
0.0
 10
226.7571541109145
 20
-20.96656832962709
 10
226.7463649964287
 20
-20.96656832962709
 10
217.6644203947976
 20
-29.06255385360682
 10
205.4830951740689
 20
-29.06255385360682
  0
SPLINE
  5
B4
330
70
100
AcDbEntity
  8
Capa 1
 62
     1
370
     9
100
AcDbSpline
210
0.0
220
0.0
230
1.0
 70
     8
 71
     3
 72
     8
 73
     4
 74
     0
 42
0.0000000001
 43
0.0000000001
 40
0.0
 40
0.0
 40
0.0
 40
0.0
 40
1.0
 40
1.0
 40
1.0
 40
1.0
 10
205.4830951740689
 20
-29.06255385360682
 30
0.0
 10
204.3923802497834
 20
-27.55530533843553
 30
0.0
 10
203.636450625855
 20
-25.76816229553911
 30
0.0
 10
203.3664922270687
 20
-23.80876227948006
 30
0.0
  0
LWPOLYLINE
  5
B5
330
70
100
AcDbEntity
  8
Capa 1
 62
     1
370
     9
100
AcDbPolyline
 90
        8
 70
     0
 43
0.0
 10
203.3664922270687
 20
-23.80876227948006
 10
203.3664922270687
 20
-23.67956954960831
 10
208.7444047251121
 20
-23.67956954960831
 10
208.7444047251121
 20
-23.67956954960831
 10
209.4787561200683
 20
-23.67956954960831
 10
209.4787561200683
 20
-20.71894893070609
 10
203.3664922270687
 20
-20.71894893070609
 10
203.3664922270687
 20
-20.57899014001186
  0
SPLINE
  5
B6
330
70
100
AcDbEntity
  8
Capa 1
 62
     1
370
     9
100
AcDbSpline
210
0.0
220
0.0
230
1.0
 70
     8
 71
     3
 72
     8
 73
     4
 74
     0
 42
0.0000000001
 43
0.0000000001
 40
0.0
 40
0.0
 40
0.0
 40
0.0
 40
1.0
 40
1.0
 40
1.0
 40
1.0
 10
203.3664922270687
 20
-20.57899014001186
 30
0.0
 10
203.636450625855
 20
-18.66265436724338
 30
0.0
 10
204.3815911352976
 20
-16.86474526352416
 30
0.0
 10
205.4830951740689
 20
-15.33598768037123
 30
0.0
  0
LWPOLYLINE
  5
B7
330
70
100
AcDbEntity
  8
Capa 1
 62
     1
370
     9
100
AcDbPolyline
 90
        3
 70
     0
 43
0.0
 10
205.4830951740689
 20
-15.33598768037123
 10
212.4052803707552
 20
-15.33598768037123
 10
217.5780152642552
 20
-10.72815975560349
  0
SPLINE
  5
B8
330
70
100
AcDbEntity
  8
Capa 1
 62
     1
370
     9
100
AcDbSpline
210
0.0
220
0.0
230
1.0
 70
     8
 71
     3
 72
     8
 73
     4
 74
     0
 42
0.0000000001
 43
0.0000000001
 40
0.0
 40
0.0
 40
0.0
 40
0.0
 40
1.0
 40
1.0
 40
1.0
 40
1.0
 10
217.5780152642552
 20
-10.72815975560349
 30
0.0
 10
219.467862377741
 20
-11.14803612768682
 30
0.0
 10
221.2064774591136
 20
-12.02006400065823
 30
0.0
 10
222.6535559127277
 20
-13.24739493444043
 30
0.0
  0
LWPOLYLINE
  5
B9
330
70
100
AcDbEntity
  8
Capa 1
 62
     1
370
     9
100
AcDbPolyline
 90
        6
 70
     0
 43
0.0
 10
222.6535559127277
 20
-13.24739493444043
 10
222.7507501577559
 20
-13.34426642818075
 10
218.1827589633985
 20
-17.40302525099309
 10
220.1697542145852
 20
-19.61004466597315
 10
224.7269562944567
 20
-15.5512858431608
 10
224.8133614249991
 20
-15.64818039056445
  0
SPLINE
  5
BA
330
70
100
AcDbEntity
  8
Capa 1
 62
     1
370
     9
100
AcDbSpline
210
0.0
220
0.0
230
1.0
 70
     8
 71
     3
 72
     8
 73
     4
 74
     0
 42
0.0000000001
 43
0.0000000001
 40
0.0
 40
0.0
 40
0.0
 40
0.0
 40
1.0
 40
1.0
 40
1.0
 40
1.0
 10
224.8133614249991
 20
-15.64818039056445
 30
0.0
 10
225.7960929897699
 20
-17.09083254079987
 30
0.0
 10
226.4547822613435
 20
-18.78108103629264
 30
0.0
 10
226.7139976529707
 20
-20.62205438330245
 30
0.0
  0
SPLINE
  5
BB
330
70
100
AcDbEntity
  8
Capa 1
 62
     1
370
     9
100
AcDbSpline
210
0.0
220
0.0
230
1.0
 70
     8
 71
     3
 72
     8
 73
     4
 74
     0
 42
0.0000000001
 43
0.0000000001
 40
0.0
 40
0.0
 40
0.0
 40
0.0
 40
1.0
 40
1.0
 40
1.0
 40
1.0
 10
250.6986602288006
 20
-20.62205438330245
 30
0.0
 10
250.7202384577729
 20
-20.7297149915289
 30
0.0
 10
250.7310275722587
 20
-20.84814166057784
 30
0.0
 10
250.7526058012309
 20
-20.96656832962709
 30
0.0
  0
LWPOLYLINE
  5
BC
330
70
100
AcDbEntity
  8
Capa 1
 62
     1
370
     9
100
AcDbPolyline
 90
        4
 70
     0
 43
0.0
 10
250.7526058012309
 20
-20.96656832962709
 10
250.7418166867445
 20
-20.96656832962709
 10
241.6598720851141
 20
-29.06255385360682
 10
229.478500757058
 20
-29.06255385360682
  0
SPLINE
  5
BD
330
70
100
AcDbEntity
  8
Capa 1
 62
     1
370
     9
100
AcDbSpline
210
0.0
220
0.0
230
1.0
 70
     8
 71
     3
 72
     8
 73
     4
 74
     0
 42
0.0000000001
 43
0.0000000001
 40
0.0
 40
0.0
 40
0.0
 40
0.0
 40
1.0
 40
1.0
 40
1.0
 40
1.0
 10
229.478500757058
 20
-29.06255385360682
 30
0.0
 10
228.3769967182867
 20
-27.55530533843553
 30
0.0
 10
227.6319023161708
 20
-25.76816229553911
 30
0.0
 10
227.3618978100578
 20
-23.80876227948006
 30
0.0
  0
LWPOLYLINE
  5
BE
330
70
100
AcDbEntity
  8
Capa 1
 62
     1
370
     9
100
AcDbPolyline
 90
        8
 70
     0
 43
0.0
 10
227.3618978100578
 20
-23.80876227948006
 10
227.3618978100578
 20
-23.67956954960831
 10
232.7398564154279
 20
-23.67956954960831
 10
232.7398564154279
 20
-23.67956954960831
 10
233.4741617030581
 20
-23.67956954960831
 10
233.4741617030581
 20
-20.71894893070609
 10
227.3618978100578
 20
-20.71894893070609
 10
227.3618978100578
 20
-20.57899014001186
  0
SPLINE
  5
BF
330
70
100
AcDbEntity
  8
Capa 1
 62
     1
370
     9
100
AcDbSpline
210
0.0
220
0.0
230
1.0
 70
     8
 71
     3
 72
     8
 73
     4
 74
     0
 42
0.0000000001
 43
0.0000000001
 40
0.0
 40
0.0
 40
0.0
 40
0.0
 40
1.0
 40
1.0
 40
1.0
 40
1.0
 10
227.3618978100578
 20
-20.57899014001186
 30
0.0
 10
227.6319023161708
 20
-18.66265436724338
 30
0.0
 10
228.3662076038009
 20
-16.86474526352416
 30
0.0
 10
229.478500757058
 20
-15.33598768037123
 30
0.0
  0
LWPOLYLINE
  5
C0
330
70
100
AcDbEntity
  8
Capa 1
 62
     1
370
     9
100
AcDbPolyline
 90
        3
 70
     0
 43
0.0
 10
229.478500757058
 20
-15.33598768037123
 10
236.4006859537444
 20
-15.33598768037123
 10
241.5734669545717
 20
-10.72815975560349
  0
SPLINE
  5
C1
330
70
100
AcDbEntity
  8
Capa 1
 62
     1
370
     9
100
AcDbSpline
210
0.0
220
0.0
230
1.0
 70
     8
 71
     3
 72
     8
 73
     4
 74
     0
 42
0.0000000001
 43
0.0000000001
 40
0.0
 40
0.0
 40
0.0
 40
0.0
 40
1.0
 40
1.0
 40
1.0
 40
1.0
 10
241.5734669545717
 20
-10.72815975560349
 30
0.0
 10
243.4633140680568
 20
-11.14803612768682
 30
0.0
 10
245.2019291494294
 20
-12.02006400065823
 30
0.0
 10
246.6489614957168
 20
-13.24739493444043
 30
0.0
  0
LWPOLYLINE
  5
C2
330
70
100
AcDbEntity
  8
Capa 1
 62
     1
370
     9
100
AcDbPolyline
 90
        6
 70
     0
 43
0.0
 10
246.6489614957168
 20
-13.24739493444043
 10
246.7353666262592
 20
-13.34426642818075
 10
242.1782106537143
 20
-17.40302525099309
 10
244.1652520122282
 20
-19.61004466597315
 10
248.7224079847725
 20
-15.5512858431608
 10
248.8088131153149
 20
-15.64818039056445
  0
SPLINE
  5
C3
330
70
100
AcDbEntity
  8
Capa 1
 62
     1
370
     9
100
AcDbSpline
210
0.0
220
0.0
230
1.0
 70
     8
 71
     3
 72
     8
 73
     4
 74
     0
 42
0.0000000001
 43
0.0000000001
 40
0.0
 40
0.0
 40
0.0
 40
0.0
 40
1.0
 40
1.0
 40
1.0
 40
1.0
 10
248.8088131153149
 20
-15.64818039056445
 30
0.0
 10
249.7807555655999
 20
-17.09083254079987
 30
0.0
 10
250.4502339516593
 20
-18.78108103629264
 30
0.0
 10
250.6986602288006
 20
-20.62205438330245
 30
0.0
  0
SPLINE
  5
C4
330
70
100
AcDbEntity
  8
Capa 1
 62
     1
370
     9
100
AcDbSpline
210
0.0
220
0.0
230
1.0
 70
     8
 71
     3
 72
     8
 73
     4
 74
     0
 42
0.0000000001
 43
0.0000000001
 40
0.0
 40
0.0
 40
0.0
 40
0.0
 40
1.0
 40
1.0
 40
1.0
 40
1.0
 10
274.6941119191164
 20
-20.62205438330245
 30
0.0
 10
274.7156901480886
 20
-20.7297149915289
 30
0.0
 10
274.7264792625752
 20
-20.84814166057784
 30
0.0
 10
274.7372683770609
 20
-20.96656832962709
 30
0.0
  0
LWPOLYLINE
  5
C5
330
70
100
AcDbEntity
  8
Capa 1
 62
     1
370
     9
100
AcDbPolyline
 90
        4
 70
     0
 43
0.0
 10
274.7372683770609
 20
-20.96656832962709
 10
274.7372683770609
 20
-20.96656832962709
 10
265.6553237754299
 20
-29.06255385360682
 10
253.463163332888
 20
-29.06255385360682
  0
SPLINE
  5
C6
330
70
100
AcDbEntity
  8
Capa 1
 62
     1
370
     9
100
AcDbSpline
210
0.0
220
0.0
230
1.0
 70
     8
 71
     3
 72
     8
 73
     4
 74
     0
 42
0.0000000001
 43
0.0000000001
 40
0.0
 40
0.0
 40
0.0
 40
0.0
 40
1.0
 40
1.0
 40
1.0
 40
1.0
 10
253.463163332888
 20
-29.06255385360682
 30
0.0
 10
252.3724484086031
 20
-27.55530533843553
 30
0.0
 10
251.6273540064872
 20
-25.76816229553911
 30
0.0
 10
251.3573495003736
 20
-23.80876227948006
 30
0.0
  0
LWPOLYLINE
  5
C7
330
70
100
AcDbEntity
  8
Capa 1
 62
     1
370
     9
100
AcDbPolyline
 90
        8
 70
     0
 43
0.0
 10
251.3573495003736
 20
-23.80876227948006
 10
251.3573495003736
 20
-23.67956954960831
 10
256.7353081057444
 20
-23.67956954960831
 10
256.7353081057444
 20
-23.67956954960831
 10
257.4696133933739
 20
-23.67956954960831
 10
257.4696133933739
 20
-20.71894893070609
 10
251.3573495003736
 20
-20.71894893070609
 10
251.3573495003736
 20
-20.57899014001186
  0
SPLINE
  5
C8
330
70
100
AcDbEntity
  8
Capa 1
 62
     1
370
     9
100
AcDbSpline
210
0.0
220
0.0
230
1.0
 70
     8
 71
     3
 72
     8
 73
     4
 74
     0
 42
0.0000000001
 43
0.0000000001
 40
0.0
 40
0.0
 40
0.0
 40
0.0
 40
1.0
 40
1.0
 40
1.0
 40
1.0
 10
251.3573495003736
 20
-20.57899014001186
 30
0.0
 10
251.6273540064872
 20
-18.66265436724338
 30
0.0
 10
252.3616592941167
 20
-16.86474526352416
 30
0.0
 10
253.4739524473744
 20
-15.33598768037123
 30
0.0
  0
LWPOLYLINE
  5
C9
330
70
100
AcDbEntity
  8
Capa 1
 62
     1
370
     9
100
AcDbPolyline
 90
        3
 70
     0
 43
0.0
 10
253.4739524473744
 20
-15.33598768037123
 10
260.3961376440602
 20
-15.33598768037123
 10
265.5689186448874
 20
-10.72815975560349
  0
SPLINE
  5
CA
330
70
100
AcDbEntity
  8
Capa 1
 62
     1
370
     9
100
AcDbSpline
210
0.0
220
0.0
230
1.0
 70
     8
 71
     3
 72
     8
 73
     4
 74
     0
 42
0.0000000001
 43
0.0000000001
 40
0.0
 40
0.0
 40
0.0
 40
0.0
 40
1.0
 40
1.0
 40
1.0
 40
1.0
 10
265.5689186448874
 20
-10.72815975560349
 30
0.0
 10
267.4587657583732
 20
-11.14803612768682
 30
0.0
 10
269.1973808397459
 20
-12.02006400065823
 30
0.0
 10
270.6444131860326
 20
-13.24739493444043
 30
0.0
  0
LWPOLYLINE
  5
CB
330
70
100
AcDbEntity
  8
Capa 1
 62
     1
370
     9
100
AcDbPolyline
 90
        6
 70
     0
 43
0.0
 10
270.6444131860326
 20
-13.24739493444043
 10
270.730818316575
 20
-13.34426642818075
 10
266.1736623440307
 20
-17.40302525099309
 10
268.1607037025447
 20
-19.61004466597315
 10
272.7178596750889
 20
-15.5512858431608
 10
272.8042648056313
 20
-15.64818039056445
  0
SPLINE
  5
CC
330
70
100
AcDbEntity
  8
Capa 1
 62
     1
370
     9
100
AcDbSpline
210
0.0
220
0.0
230
1.0
 70
     8
 71
     3
 72
     8
 73
     4
 74
     0
 42
0.0000000001
 43
0.0000000001
 40
0.0
 40
0.0
 40
0.0
 40
0.0
 40
1.0
 40
1.0
 40
1.0
 40
1.0
 10
272.8042648056313
 20
-15.64818039056445
 30
0.0
 10
273.7761150412624
 20
-17.09083254079987
 30
0.0
 10
274.4456856419757
 20
-18.78108103629264
 30
0.0
 10
274.6941119191164
 20
-20.62205438330245
 30
0.0
  0
SPLINE
  5
CD
330
70
100
AcDbEntity
  8
Capa 1
 62
     1
370
     9
100
AcDbSpline
210
0.0
220
0.0
230
1.0
 70
     8
 71
     3
 72
     8
 73
     4
 74
     0
 42
0.0000000001
 43
0.0000000001
 40
0.0
 40
0.0
 40
0.0
 40
0.0
 40
1.0
 40
1.0
 40
1.0
 40
1.0
 10
226.7139976529707
 20
-39.73160486053654
 30
0.0
 10
226.7247867674565
 20
-39.83924241509935
 30
0.0
 10
226.7463649964287
 20
-39.95766908414861
 30
0.0
 10
226.7571541109145
 20
-40.07609575319786
 30
0.0
  0
LWPOLYLINE
  5
CE
330
70
100
AcDbEntity
  8
Capa 1
 62
     1
370
     9
100
AcDbPolyline
 90
        4
 70
     0
 43
0.0
 10
226.7571541109145
 20
-40.07609575319786
 10
226.7463649964287
 20
-40.07609575319786
 10
217.6644203947976
 20
-48.1720812771779
 10
205.4830951740689
 20
-48.1720812771779
  0
SPLINE
  5
CF
330
70
100
AcDbEntity
  8
Capa 1
 62
     1
370
     9
100
AcDbSpline
210
0.0
220
0.0
230
1.0
 70
     8
 71
     3
 72
     8
 73
     4
 74
     0
 42
0.0000000001
 43
0.0000000001
 40
0.0
 40
0.0
 40
0.0
 40
0.0
 40
1.0
 40
1.0
 40
1.0
 40
1.0
 10
205.4830951740689
 20
-48.1720812771779
 30
0.0
 10
204.3923802497834
 20
-46.66485581566962
 30
0.0
 10
203.636450625855
 20
-44.8777127727732
 30
0.0
 10
203.3664922270687
 20
-42.91831275671447
 30
0.0
  0
LWPOLYLINE
  5
D0
330
70
100
AcDbEntity
  8
Capa 1
 62
     1
370
     9
100
AcDbPolyline
 90
        8
 70
     0
 43
0.0
 10
203.3664922270687
 20
-42.91831275671447
 10
203.3664922270687
 20
-42.7891200268424
 10
208.7444047251121
 20
-42.7891200268424
 10
208.7444047251121
 20
-42.7891200268424
 10
209.4787561200683
 20
-42.7891200268424
 10
209.4787561200683
 20
-39.82847635427686
 10
203.3664922270687
 20
-39.82847635427686
 10
203.3664922270687
 20
-39.68854061724596
  0
SPLINE
  5
D1
330
70
100
AcDbEntity
  8
Capa 1
 62
     1
370
     9
100
AcDbSpline
210
0.0
220
0.0
230
1.0
 70
     8
 71
     3
 72
     8
 73
     4
 74
     0
 42
0.0000000001
 43
0.0000000001
 40
0.0
 40
0.0
 40
0.0
 40
0.0
 40
1.0
 40
1.0
 40
1.0
 40
1.0
 10
203.3664922270687
 20
-39.68854061724596
 30
0.0
 10
203.636450625855
 20
-37.77218179081415
 30
0.0
 10
204.3815911352976
 20
-35.97427268709461
 30
0.0
 10
205.4830951740689
 20
-34.44551510394168
 30
0.0
  0
LWPOLYLINE
  5
D2
330
70
100
AcDbEntity
  8
Capa 1
 62
     1
370
     9
100
AcDbPolyline
 90
        3
 70
     0
 43
0.0
 10
205.4830951740689
 20
-34.44551510394168
 10
212.4052803707552
 20
-34.44551510394168
 10
217.5780152642552
 20
-29.83768717917427
  0
SPLINE
  5
D3
330
70
100
AcDbEntity
  8
Capa 1
 62
     1
370
     9
100
AcDbSpline
210
0.0
220
0.0
230
1.0
 70
     8
 71
     3
 72
     8
 73
     4
 74
     0
 42
0.0000000001
 43
0.0000000001
 40
0.0
 40
0.0
 40
0.0
 40
0.0
 40
1.0
 40
1.0
 40
1.0
 40
1.0
 10
217.5780152642552
 20
-29.83768717917427
 30
0.0
 10
219.467862377741
 20
-30.25756355125759
 30
0.0
 10
221.2064774591136
 20
-31.12961447789234
 30
0.0
 10
222.6535559127277
 20
-32.35692235801088
 30
0.0
  0
LWPOLYLINE
  5
D4
330
70
100
AcDbEntity
  8
Capa 1
 62
     1
370
     9
100
AcDbPolyline
 90
        6
 70
     0
 43
0.0
 10
222.6535559127277
 20
-32.35692235801088
 10
222.7507501577559
 20
-32.45381690541485
 10
218.1827589633985
 20
-36.51257572822719
 10
220.1697542145852
 20
-38.71959514320693
 10
224.7269562944567
 20
-34.66083632039491
 10
224.8133614249991
 20
-34.75773086779855
  0
SPLINE
  5
D5
330
70
100
AcDbEntity
  8
Capa 1
 62
     1
370
     9
100
AcDbSpline
210
0.0
220
0.0
230
1.0
 70
     8
 71
     3
 72
     8
 73
     4
 74
     0
 42
0.0000000001
 43
0.0000000001
 40
0.0
 40
0.0
 40
0.0
 40
0.0
 40
1.0
 40
1.0
 40
1.0
 40
1.0
 10
224.8133614249991
 20
-34.75773086779855
 30
0.0
 10
225.7960929897699
 20
-36.20035996437032
 30
0.0
 10
226.4547822613435
 20
-37.89060845986309
 30
0.0
 10
226.7139976529707
 20
-39.73160486053654
 30
0.0
  0
SPLINE
  5
D6
330
70
100
AcDbEntity
  8
Capa 1
 62
     1
370
     9
100
AcDbSpline
210
0.0
220
0.0
230
1.0
 70
     8
 71
     3
 72
     8
 73
     4
 74
     0
 42
0.0000000001
 43
0.0000000001
 40
0.0
 40
0.0
 40
0.0
 40
0.0
 40
1.0
 40
1.0
 40
1.0
 40
1.0
 10
250.6986602288006
 20
-39.73160486053654
 30
0.0
 10
250.7202384577729
 20
-39.83924241509935
 30
0.0
 10
250.7310275722587
 20
-39.95766908414861
 30
0.0
 10
250.7526058012309
 20
-40.07609575319786
 30
0.0
  0
LWPOLYLINE
  5
D7
330
70
100
AcDbEntity
  8
Capa 1
 62
     1
370
     9
100
AcDbPolyline
 90
        4
 70
     0
 43
0.0
 10
250.7526058012309
 20
-40.07609575319786
 10
250.7418166867445
 20
-40.07609575319786
 10
241.6598720851141
 20
-48.1720812771779
 10
229.478500757058
 20
-48.1720812771779
  0
SPLINE
  5
D8
330
70
100
AcDbEntity
  8
Capa 1
 62
     1
370
     9
100
AcDbSpline
210
0.0
220
0.0
230
1.0
 70
     8
 71
     3
 72
     8
 73
     4
 74
     0
 42
0.0000000001
 43
0.0000000001
 40
0.0
 40
0.0
 40
0.0
 40
0.0
 40
1.0
 40
1.0
 40
1.0
 40
1.0
 10
229.478500757058
 20
-48.1720812771779
 30
0.0
 10
228.3769967182867
 20
-46.66485581566962
 30
0.0
 10
227.6319023161708
 20
-44.8777127727732
 30
0.0
 10
227.3618978100578
 20
-42.91831275671447
 30
0.0
  0
LWPOLYLINE
  5
D9
330
70
100
AcDbEntity
  8
Capa 1
 62
     1
370
     9
100
AcDbPolyline
 90
        8
 70
     0
 43
0.0
 10
227.3618978100578
 20
-42.91831275671447
 10
227.3618978100578
 20
-42.7891200268424
 10
232.7398564154279
 20
-42.7891200268424
 10
232.7398564154279
 20
-42.7891200268424
 10
233.4741617030581
 20
-42.7891200268424
 10
233.4741617030581
 20
-39.82847635427686
 10
227.3618978100578
 20
-39.82847635427686
 10
227.3618978100578
 20
-39.68854061724596
  0
SPLINE
  5
DA
330
70
100
AcDbEntity
  8
Capa 1
 62
     1
370
     9
100
AcDbSpline
210
0.0
220
0.0
230
1.0
 70
     8
 71
     3
 72
     8
 73
     4
 74
     0
 42
0.0000000001
 43
0.0000000001
 40
0.0
 40
0.0
 40
0.0
 40
0.0
 40
1.0
 40
1.0
 40
1.0
 40
1.0
 10
227.3618978100578
 20
-39.68854061724596
 30
0.0
 10
227.6319023161708
 20
-37.77218179081415
 30
0.0
 10
228.3662076038009
 20
-35.97427268709461
 30
0.0
 10
229.478500757058
 20
-34.44551510394168
 30
0.0
  0
LWPOLYLINE
  5
DB
330
70
100
AcDbEntity
  8
Capa 1
 62
     1
370
     9
100
AcDbPolyline
 90
        3
 70
     0
 43
0.0
 10
229.478500757058
 20
-34.44551510394168
 10
236.4006859537444
 20
-34.44551510394168
 10
241.5734669545717
 20
-29.83768717917427
  0
SPLINE
  5
DC
330
70
100
AcDbEntity
  8
Capa 1
 62
     1
370
     9
100
AcDbSpline
210
0.0
220
0.0
230
1.0
 70
     8
 71
     3
 72
     8
 73
     4
 74
     0
 42
0.0000000001
 43
0.0000000001
 40
0.0
 40
0.0
 40
0.0
 40
0.0
 40
1.0
 40
1.0
 40
1.0
 40
1.0
 10
241.5734669545717
 20
-29.83768717917427
 30
0.0
 10
243.4633140680568
 20
-30.25756355125759
 30
0.0
 10
245.2019291494294
 20
-31.12961447789234
 30
0.0
 10
246.6489614957168
 20
-32.35692235801088
 30
0.0
  0
LWPOLYLINE
  5
DD
330
70
100
AcDbEntity
  8
Capa 1
 62
     1
370
     9
100
AcDbPolyline
 90
        6
 70
     0
 43
0.0
 10
246.6489614957168
 20
-32.35692235801088
 10
246.7353666262592
 20
-32.45381690541485
 10
242.1782106537143
 20
-36.51257572822719
 10
244.1652520122282
 20
-38.71959514320693
 10
248.7224079847725
 20
-34.66083632039491
 10
248.8088131153149
 20
-34.75773086779855
  0
SPLINE
  5
DE
330
70
100
AcDbEntity
  8
Capa 1
 62
     1
370
     9
100
AcDbSpline
210
0.0
220
0.0
230
1.0
 70
     8
 71
     3
 72
     8
 73
     4
 74
     0
 42
0.0000000001
 43
0.0000000001
 40
0.0
 40
0.0
 40
0.0
 40
0.0
 40
1.0
 40
1.0
 40
1.0
 40
1.0
 10
248.8088131153149
 20
-34.75773086779855
 30
0.0
 10
249.7807555655999
 20
-36.20035996437032
 30
0.0
 10
250.4502339516593
 20
-37.89060845986309
 30
0.0
 10
250.6986602288006
 20
-39.73160486053654
 30
0.0
  0
SPLINE
  5
DF
330
70
100
AcDbEntity
  8
Capa 1
 62
     1
370
     9
100
AcDbSpline
210
0.0
220
0.0
230
1.0
 70
     8
 71
     3
 72
     8
 73
     4
 74
     0
 42
0.0000000001
 43
0.0000000001
 40
0.0
 40
0.0
 40
0.0
 40
0.0
 40
1.0
 40
1.0
 40
1.0
 40
1.0
 10
274.6941119191164
 20
-39.73160486053654
 30
0.0
 10
274.7156901480886
 20
-39.83924241509935
 30
0.0
 10
274.7264792625752
 20
-39.95766908414861
 30
0.0
 10
274.7372683770609
 20
-40.07609575319786
 30
0.0
  0
LWPOLYLINE
  5
E0
330
70
100
AcDbEntity
  8
Capa 1
 62
     1
370
     9
100
AcDbPolyline
 90
        4
 70
     0
 43
0.0
 10
274.7372683770609
 20
-40.07609575319786
 10
274.7372683770609
 20
-40.07609575319786
 10
265.6553237754299
 20
-48.1720812771779
 10
253.463163332888
 20
-48.1720812771779
  0
SPLINE
  5
E1
330
70
100
AcDbEntity
  8
Capa 1
 62
     1
370
     9
100
AcDbSpline
210
0.0
220
0.0
230
1.0
 70
     8
 71
     3
 72
     8
 73
     4
 74
     0
 42
0.0000000001
 43
0.0000000001
 40
0.0
 40
0.0
 40
0.0
 40
0.0
 40
1.0
 40
1.0
 40
1.0
 40
1.0
 10
253.463163332888
 20
-48.1720812771779
 30
0.0
 10
252.3724484086031
 20
-46.66485581566962
 30
0.0
 10
251.6273540064872
 20
-44.8777127727732
 30
0.0
 10
251.3573495003736
 20
-42.91831275671447
 30
0.0
  0
LWPOLYLINE
  5
E2
330
70
100
AcDbEntity
  8
Capa 1
 62
     1
370
     9
100
AcDbPolyline
 90
        8
 70
     0
 43
0.0
 10
251.3573495003736
 20
-42.91831275671447
 10
251.3573495003736
 20
-42.7891200268424
 10
256.7353081057444
 20
-42.7891200268424
 10
256.7353081057444
 20
-42.7891200268424
 10
257.4696133933739
 20
-42.7891200268424
 10
257.4696133933739
 20
-39.82847635427686
 10
251.3573495003736
 20
-39.82847635427686
 10
251.3573495003736
 20
-39.68854061724596
  0
SPLINE
  5
E3
330
70
100
AcDbEntity
  8
Capa 1
 62
     1
370
     9
100
AcDbSpline
210
0.0
220
0.0
230
1.0
 70
     8
 71
     3
 72
     8
 73
     4
 74
     0
 42
0.0000000001
 43
0.0000000001
 40
0.0
 40
0.0
 40
0.0
 40
0.0
 40
1.0
 40
1.0
 40
1.0
 40
1.0
 10
251.3573495003736
 20
-39.68854061724596
 30
0.0
 10
251.6273540064872
 20
-37.77218179081415
 30
0.0
 10
252.3616592941167
 20
-35.97427268709461
 30
0.0
 10
253.4739524473744
 20
-34.44551510394168
 30
0.0
  0
LWPOLYLINE
  5
E4
330
70
100
AcDbEntity
  8
Capa 1
 62
     1
370
     9
100
AcDbPolyline
 90
        3
 70
     0
 43
0.0
 10
253.4739524473744
 20
-34.44551510394168
 10
260.3961376440602
 20
-34.44551510394168
 10
265.5689186448874
 20
-29.83768717917427
  0
SPLINE
  5
E5
330
70
100
AcDbEntity
  8
Capa 1
 62
     1
370
     9
100
AcDbSpline
210
0.0
220
0.0
230
1.0
 70
     8
 71
     3
 72
     8
 73
     4
 74
     0
 42
0.0000000001
 43
0.0000000001
 40
0.0
 40
0.0
 40
0.0
 40
0.0
 40
1.0
 40
1.0
 40
1.0
 40
1.0
 10
265.5689186448874
 20
-29.83768717917427
 30
0.0
 10
267.4587657583732
 20
-30.25756355125759
 30
0.0
 10
269.1973808397459
 20
-31.12961447789234
 30
0.0
 10
270.6444131860326
 20
-32.35692235801088
 30
0.0
  0
LWPOLYLINE
  5
E6
330
70
100
AcDbEntity
  8
Capa 1
 62
     1
370
     9
100
AcDbPolyline
 90
        6
 70
     0
 43
0.0
 10
270.6444131860326
 20
-32.35692235801088
 10
270.730818316575
 20
-32.45381690541485
 10
266.1736623440307
 20
-36.51257572822719
 10
268.1607037025447
 20
-38.71959514320693
 10
272.7178596750889
 20
-34.66083632039491
 10
272.8042648056313
 20
-34.75773086779855
  0
SPLINE
  5
E7
330
70
100
AcDbEntity
  8
Capa 1
 62
     1
370
     9
100
AcDbSpline
210
0.0
220
0.0
230
1.0
 70
     8
 71
     3
 72
     8
 73
     4
 74
     0
 42
0.0000000001
 43
0.0000000001
 40
0.0
 40
0.0
 40
0.0
 40
0.0
 40
1.0
 40
1.0
 40
1.0
 40
1.0
 10
272.8042648056313
 20
-34.75773086779855
 30
0.0
 10
273.7761150412624
 20
-36.20035996437032
 30
0.0
 10
274.4456856419757
 20
-37.89060845986309
 30
0.0
 10
274.6941119191164
 20
-39.73160486053654
 30
0.0
  0
SPLINE
  5
E8
330
70
100
AcDbEntity
  8
Capa 1
 62
     1
370
     9
100
AcDbSpline
210
0.0
220
0.0
230
1.0
 70
     8
 71
     3
 72
     8
 73
     4
 74
     0
 42
0.0000000001
 43
0.0000000001
 40
0.0
 40
0.0
 40
0.0
 40
0.0
 40
1.0
 40
1.0
 40
1.0
 40
1.0
 10
226.7139976529707
 20
-58.84113228410699
 30
0.0
 10
226.7247867674565
 20
-58.94879289233376
 30
0.0
 10
226.7463649964287
 20
-59.0672195613827
 30
0.0
 10
226.7571541109145
 20
-59.18564623043195
 30
0.0
  0
LWPOLYLINE
  5
E9
330
70
100
AcDbEntity
  8
Capa 1
 62
     1
370
     9
100
AcDbPolyline
 90
        4
 70
     0
 43
0.0
 10
226.7571541109145
 20
-59.18564623043195
 10
226.7463649964287
 20
-59.18564623043195
 10
217.6644203947976
 20
-67.28163175441169
 10
205.4830951740689
 20
-67.28163175441169
  0
SPLINE
  5
EA
330
70
100
AcDbEntity
  8
Capa 1
 62
     1
370
     9
100
AcDbSpline
210
0.0
220
0.0
230
1.0
 70
     8
 71
     3
 72
     8
 73
     4
 74
     0
 42
0.0000000001
 43
0.0000000001
 40
0.0
 40
0.0
 40
0.0
 40
0.0
 40
1.0
 40
1.0
 40
1.0
 40
1.0
 10
205.4830951740689
 20
-67.28163175441169
 30
0.0
 10
204.3923802497834
 20
-65.77440629290404
 30
0.0
 10
203.636450625855
 20
-63.98724019634397
 30
0.0
 10
203.3664922270687
 20
-62.02786323394825
 30
0.0
  0
LWPOLYLINE
  5
EB
330
70
100
AcDbEntity
  8
Capa 1
 62
     1
370
     9
100
AcDbPolyline
 90
        8
 70
     0
 43
0.0
 10
203.3664922270687
 20
-62.02786323394825
 10
203.3664922270687
 20
-61.8986705040765
 10
208.7444047251121
 20
-61.8986705040765
 10
208.7444047251121
 20
-61.8986705040765
 10
209.4787561200683
 20
-61.8986705040765
 10
209.4787561200683
 20
-58.93802683151096
 10
203.3664922270687
 20
-58.93802683151096
 10
203.3664922270687
 20
-58.79806804081641
  0
SPLINE
  5
EC
330
70
100
AcDbEntity
  8
Capa 1
 62
     1
370
     9
100
AcDbSpline
210
0.0
220
0.0
230
1.0
 70
     8
 71
     3
 72
     8
 73
     4
 74
     0
 42
0.0000000001
 43
0.0000000001
 40
0.0
 40
0.0
 40
0.0
 40
0.0
 40
1.0
 40
1.0
 40
1.0
 40
1.0
 10
203.3664922270687
 20
-58.79806804081641
 30
0.0
 10
203.636450625855
 20
-56.88173226804825
 30
0.0
 10
204.3815911352976
 20
-55.08382316432903
 30
0.0
 10
205.4830951740689
 20
-53.55506558117578
 30
0.0
  0
LWPOLYLINE
  5
ED
330
70
100
AcDbEntity
  8
Capa 1
 62
     1
370
     9
100
AcDbPolyline
 90
        3
 70
     0
 43
0.0
 10
205.4830951740689
 20
-53.55506558117578
 10
212.4052803707552
 20
-53.55506558117578
 10
217.5780152642552
 20
-48.94723765640836
  0
SPLINE
  5
EE
330
70
100
AcDbEntity
  8
Capa 1
 62
     1
370
     9
100
AcDbSpline
210
0.0
220
0.0
230
1.0
 70
     8
 71
     3
 72
     8
 73
     4
 74
     0
 42
0.0000000001
 43
0.0000000001
 40
0.0
 40
0.0
 40
0.0
 40
0.0
 40
1.0
 40
1.0
 40
1.0
 40
1.0
 10
217.5780152642552
 20
-48.94723765640836
 30
0.0
 10
219.467862377741
 20
-49.36711402849168
 30
0.0
 10
221.2064774591136
 20
-50.2391419014631
 30
0.0
 10
222.6535559127277
 20
-51.46647283524497
 30
0.0
  0
LWPOLYLINE
  5
EF
330
70
100
AcDbEntity
  8
Capa 1
 62
     1
370
     9
100
AcDbPolyline
 90
        6
 70
     0
 43
0.0
 10
222.6535559127277
 20
-51.46647283524497
 10
222.7507501577559
 20
-51.56336738264894
 10
218.1827589633985
 20
-55.62212620546129
 10
220.1697542145852
 20
-57.82914562044167
 10
224.7269562944567
 20
-53.77036374396535
 10
224.8133614249991
 20
-53.86728134503265
  0
SPLINE
  5
F0
330
70
100
AcDbEntity
  8
Capa 1
 62
     1
370
     9
100
AcDbSpline
210
0.0
220
0.0
230
1.0
 70
     8
 71
     3
 72
     8
 73
     4
 74
     0
 42
0.0000000001
 43
0.0000000001
 40
0.0
 40
0.0
 40
0.0
 40
0.0
 40
1.0
 40
1.0
 40
1.0
 40
1.0
 10
224.8133614249991
 20
-53.86728134503265
 30
0.0
 10
225.7960929897699
 20
-55.30991044160441
 30
0.0
 10
226.4547822613435
 20
-57.00015893709719
 30
0.0
 10
226.7139976529707
 20
-58.84113228410699
 30
0.0
  0
SPLINE
  5
F1
330
70
100
AcDbEntity
  8
Capa 1
 62
     1
370
     9
100
AcDbSpline
210
0.0
220
0.0
230
1.0
 70
     8
 71
     3
 72
     8
 73
     4
 74
     0
 42
0.0000000001
 43
0.0000000001
 40
0.0
 40
0.0
 40
0.0
 40
0.0
 40
1.0
 40
1.0
 40
1.0
 40
1.0
 10
250.6986602288006
 20
-58.84113228410699
 30
0.0
 10
250.7202384577729
 20
-58.94879289233376
 30
0.0
 10
250.7310275722587
 20
-59.0672195613827
 30
0.0
 10
250.7526058012309
 20
-59.18564623043195
 30
0.0
  0
LWPOLYLINE
  5
F2
330
70
100
AcDbEntity
  8
Capa 1
 62
     1
370
     9
100
AcDbPolyline
 90
        4
 70
     0
 43
0.0
 10
250.7526058012309
 20
-59.18564623043195
 10
250.7418166867445
 20
-59.18564623043195
 10
241.6598720851141
 20
-67.28163175441169
 10
229.478500757058
 20
-67.28163175441169
  0
SPLINE
  5
F3
330
70
100
AcDbEntity
  8
Capa 1
 62
     1
370
     9
100
AcDbSpline
210
0.0
220
0.0
230
1.0
 70
     8
 71
     3
 72
     8
 73
     4
 74
     0
 42
0.0000000001
 43
0.0000000001
 40
0.0
 40
0.0
 40
0.0
 40
0.0
 40
1.0
 40
1.0
 40
1.0
 40
1.0
 10
229.478500757058
 20
-67.28163175441169
 30
0.0
 10
228.3769967182867
 20
-65.77440629290404
 30
0.0
 10
227.6319023161708
 20
-63.98724019634397
 30
0.0
 10
227.3618978100578
 20
-62.02786323394825
 30
0.0
  0
LWPOLYLINE
  5
F4
330
70
100
AcDbEntity
  8
Capa 1
 62
     1
370
     9
100
AcDbPolyline
 90
        8
 70
     0
 43
0.0
 10
227.3618978100578
 20
-62.02786323394825
 10
227.3618978100578
 20
-61.8986705040765
 10
232.7398564154279
 20
-61.8986705040765
 10
232.7398564154279
 20
-61.8986705040765
 10
233.4741617030581
 20
-61.8986705040765
 10
233.4741617030581
 20
-58.93802683151096
 10
227.3618978100578
 20
-58.93802683151096
 10
227.3618978100578
 20
-58.79806804081641
  0
SPLINE
  5
F5
330
70
100
AcDbEntity
  8
Capa 1
 62
     1
370
     9
100
AcDbSpline
210
0.0
220
0.0
230
1.0
 70
     8
 71
     3
 72
     8
 73
     4
 74
     0
 42
0.0000000001
 43
0.0000000001
 40
0.0
 40
0.0
 40
0.0
 40
0.0
 40
1.0
 40
1.0
 40
1.0
 40
1.0
 10
227.3618978100578
 20
-58.79806804081641
 30
0.0
 10
227.6319023161708
 20
-56.88173226804825
 30
0.0
 10
228.3662076038009
 20
-55.08382316432903
 30
0.0
 10
229.478500757058
 20
-53.55506558117578
 30
0.0
  0
LWPOLYLINE
  5
F6
330
70
100
AcDbEntity
  8
Capa 1
 62
     1
370
     9
100
AcDbPolyline
 90
        3
 70
     0
 43
0.0
 10
229.478500757058
 20
-53.55506558117578
 10
236.4006859537444
 20
-53.55506558117578
 10
241.5734669545717
 20
-48.94723765640836
  0
SPLINE
  5
F7
330
70
100
AcDbEntity
  8
Capa 1
 62
     1
370
     9
100
AcDbSpline
210
0.0
220
0.0
230
1.0
 70
     8
 71
     3
 72
     8
 73
     4
 74
     0
 42
0.0000000001
 43
0.0000000001
 40
0.0
 40
0.0
 40
0.0
 40
0.0
 40
1.0
 40
1.0
 40
1.0
 40
1.0
 10
241.5734669545717
 20
-48.94723765640836
 30
0.0
 10
243.4633140680568
 20
-49.36711402849168
 30
0.0
 10
245.2019291494294
 20
-50.2391419014631
 30
0.0
 10
246.6489614957168
 20
-51.46647283524497
 30
0.0
  0
LWPOLYLINE
  5
F8
330
70
100
AcDbEntity
  8
Capa 1
 62
     1
370
     9
100
AcDbPolyline
 90
        6
 70
     0
 43
0.0
 10
246.6489614957168
 20
-51.46647283524497
 10
246.7353666262592
 20
-51.56336738264894
 10
242.1782106537143
 20
-55.62212620546129
 10
244.1652520122282
 20
-57.82914562044167
 10
248.7224079847725
 20
-53.77036374396535
 10
248.8088131153149
 20
-53.86728134503265
  0
SPLINE
  5
F9
330
70
100
AcDbEntity
  8
Capa 1
 62
     1
370
     9
100
AcDbSpline
210
0.0
220
0.0
230
1.0
 70
     8
 71
     3
 72
     8
 73
     4
 74
     0
 42
0.0000000001
 43
0.0000000001
 40
0.0
 40
0.0
 40
0.0
 40
0.0
 40
1.0
 40
1.0
 40
1.0
 40
1.0
 10
248.8088131153149
 20
-53.86728134503265
 30
0.0
 10
249.7807555655999
 20
-55.30991044160441
 30
0.0
 10
250.4502339516593
 20
-57.00015893709719
 30
0.0
 10
250.6986602288006
 20
-58.84113228410699
 30
0.0
  0
SPLINE
  5
FA
330
70
100
AcDbEntity
  8
Capa 1
 62
     1
370
     9
100
AcDbSpline
210
0.0
220
0.0
230
1.0
 70
     8
 71
     3
 72
     8
 73
     4
 74
     0
 42
0.0000000001
 43
0.0000000001
 40
0.0
 40
0.0
 40
0.0
 40
0.0
 40
1.0
 40
1.0
 40
1.0
 40
1.0
 10
274.6941119191164
 20
-58.84113228410699
 30
0.0
 10
274.7156901480886
 20
-58.94879289233376
 30
0.0
 10
274.7264792625752
 20
-59.0672195613827
 30
0.0
 10
274.7372683770609
 20
-59.18564623043195
 30
0.0
  0
LWPOLYLINE
  5
FB
330
70
100
AcDbEntity
  8
Capa 1
 62
     1
370
     9
100
AcDbPolyline
 90
        4
 70
     0
 43
0.0
 10
274.7372683770609
 20
-59.18564623043195
 10
274.7372683770609
 20
-59.18564623043195
 10
265.6553237754299
 20
-67.28163175441169
 10
253.463163332888
 20
-67.28163175441169
  0
SPLINE
  5
FC
330
70
100
AcDbEntity
  8
Capa 1
 62
     1
370
     9
100
AcDbSpline
210
0.0
220
0.0
230
1.0
 70
     8
 71
     3
 72
     8
 73
     4
 74
     0
 42
0.0000000001
 43
0.0000000001
 40
0.0
 40
0.0
 40
0.0
 40
0.0
 40
1.0
 40
1.0
 40
1.0
 40
1.0
 10
253.463163332888
 20
-67.28163175441169
 30
0.0
 10
252.3724484086031
 20
-65.77440629290404
 30
0.0
 10
251.6273540064872
 20
-63.98724019634397
 30
0.0
 10
251.3573495003736
 20
-62.02786323394825
 30
0.0
  0
LWPOLYLINE
  5
FD
330
70
100
AcDbEntity
  8
Capa 1
 62
     1
370
     9
100
AcDbPolyline
 90
        8
 70
     0
 43
0.0
 10
251.3573495003736
 20
-62.02786323394825
 10
251.3573495003736
 20
-61.8986705040765
 10
256.7353081057444
 20
-61.8986705040765
 10
256.7353081057444
 20
-61.8986705040765
 10
257.4696133933739
 20
-61.8986705040765
 10
257.4696133933739
 20
-58.93802683151096
 10
251.3573495003736
 20
-58.93802683151096
 10
251.3573495003736
 20
-58.79806804081641
  0
SPLINE
  5
FE
330
70
100
AcDbEntity
  8
Capa 1
 62
     1
370
     9
100
AcDbSpline
210
0.0
220
0.0
230
1.0
 70
     8
 71
     3
 72
     8
 73
     4
 74
     0
 42
0.0000000001
 43
0.0000000001
 40
0.0
 40
0.0
 40
0.0
 40
0.0
 40
1.0
 40
1.0
 40
1.0
 40
1.0
 10
251.3573495003736
 20
-58.79806804081641
 30
0.0
 10
251.6273540064872
 20
-56.88173226804825
 30
0.0
 10
252.3616592941167
 20
-55.08382316432903
 30
0.0
 10
253.4739524473744
 20
-53.55506558117578
 30
0.0
  0
LWPOLYLINE
  5
FF
330
70
100
AcDbEntity
  8
Capa 1
 62
     1
370
     9
100
AcDbPolyline
 90
        3
 70
     0
 43
0.0
 10
253.4739524473744
 20
-53.55506558117578
 10
260.3961376440602
 20
-53.55506558117578
 10
265.5689186448874
 20
-48.94723765640836
  0
SPLINE
  5
100
330
70
100
AcDbEntity
  8
Capa 1
 62
     1
370
     9
100
AcDbSpline
210
0.0
220
0.0
230
1.0
 70
     8
 71
     3
 72
     8
 73
     4
 74
     0
 42
0.0000000001
 43
0.0000000001
 40
0.0
 40
0.0
 40
0.0
 40
0.0
 40
1.0
 40
1.0
 40
1.0
 40
1.0
 10
265.5689186448874
 20
-48.94723765640836
 30
0.0
 10
267.4587657583732
 20
-49.36711402849168
 30
0.0
 10
269.1973808397459
 20
-50.2391419014631
 30
0.0
 10
270.6444131860326
 20
-51.46647283524497
 30
0.0
  0
LWPOLYLINE
  5
101
330
70
100
AcDbEntity
  8
Capa 1
 62
     1
370
     9
100
AcDbPolyline
 90
        6
 70
     0
 43
0.0
 10
270.6444131860326
 20
-51.46647283524497
 10
270.730818316575
 20
-51.56336738264894
 10
266.1736623440307
 20
-55.62212620546129
 10
268.1607037025447
 20
-57.82914562044167
 10
272.7178596750889
 20
-53.77036374396535
 10
272.8042648056313
 20
-53.86728134503265
  0
SPLINE
  5
102
330
70
100
AcDbEntity
  8
Capa 1
 62
     1
370
     9
100
AcDbSpline
210
0.0
220
0.0
230
1.0
 70
     8
 71
     3
 72
     8
 73
     4
 74
     0
 42
0.0000000001
 43
0.0000000001
 40
0.0
 40
0.0
 40
0.0
 40
0.0
 40
1.0
 40
1.0
 40
1.0
 40
1.0
 10
272.8042648056313
 20
-53.86728134503265
 30
0.0
 10
273.7761150412624
 20
-55.30991044160441
 30
0.0
 10
274.4456856419757
 20
-57.00015893709719
 30
0.0
 10
274.6941119191164
 20
-58.84113228410699
 30
0.0
  0
SPLINE
  5
103
330
70
100
AcDbEntity
  8
Capa 1
 62
     1
370
     9
100
AcDbSpline
210
0.0
220
0.0
230
1.0
 70
     8
 71
     3
 72
     8
 73
     4
 74
     0
 42
0.0000000001
 43
0.0000000001
 40
0.0
 40
0.0
 40
0.0
 40
0.0
 40
1.0
 40
1.0
 40
1.0
 40
1.0
 10
226.7139976529707
 20
-77.95065970767776
 30
0.0
 10
226.7247867674565
 20
-78.05832031590421
 30
0.0
 10
226.7463649964287
 20
-78.17677003861679
 30
0.0
 10
226.7571541109145
 20
-78.29517365400272
 30
0.0
  0
LWPOLYLINE
  5
104
330
70
100
AcDbEntity
  8
Capa 1
 62
     1
370
     9
100
AcDbPolyline
 90
        4
 70
     0
 43
0.0
 10
226.7571541109145
 20
-78.29517365400272
 10
226.7463649964287
 20
-78.29517365400272
 10
217.6644203947976
 20
-86.39115917798212
 10
205.4830951740689
 20
-86.39115917798212
  0
SPLINE
  5
105
330
70
100
AcDbEntity
  8
Capa 1
 62
     1
370
     9
100
AcDbSpline
210
0.0
220
0.0
230
1.0
 70
     8
 71
     3
 72
     8
 73
     4
 74
     0
 42
0.0000000001
 43
0.0000000001
 40
0.0
 40
0.0
 40
0.0
 40
0.0
 40
1.0
 40
1.0
 40
1.0
 40
1.0
 10
205.4830951740689
 20
-86.39115917798212
 30
0.0
 10
204.3923802497834
 20
-84.88393371647449
 30
0.0
 10
203.636450625855
 20
-83.09679067357807
 30
0.0
 10
203.3664922270687
 20
-81.13739065751902
 30
0.0
  0
LWPOLYLINE
  5
106
330
70
100
AcDbEntity
  8
Capa 1
 62
     1
370
     9
100
AcDbPolyline
 90
        8
 70
     0
 43
0.0
 10
203.3664922270687
 20
-81.13739065751902
 10
203.3664922270687
 20
-81.00819792764728
 10
208.7444047251121
 20
-80.99743186682447
 10
208.7444047251121
 20
-81.00819792764728
 10
209.4787561200683
 20
-81.00819792764728
 10
209.4787561200683
 20
-78.04757730874506
 10
203.3664922270687
 20
-78.04757730874506
 10
203.3664922270687
 20
-77.90761851805051
  0
SPLINE
  5
107
330
70
100
AcDbEntity
  8
Capa 1
 62
     1
370
     9
100
AcDbSpline
210
0.0
220
0.0
230
1.0
 70
     8
 71
     3
 72
     8
 73
     4
 74
     0
 42
0.0000000001
 43
0.0000000001
 40
0.0
 40
0.0
 40
0.0
 40
0.0
 40
1.0
 40
1.0
 40
1.0
 40
1.0
 10
203.3664922270687
 20
-77.90761851805051
 30
0.0
 10
203.636450625855
 20
-75.99128274528235
 30
0.0
 10
204.3815911352976
 20
-74.19337364156312
 30
0.0
 10
205.4830951740689
 20
-72.66459300474655
 30
0.0
  0
LWPOLYLINE
  5
108
330
70
100
AcDbEntity
  8
Capa 1
 62
     1
370
     9
100
AcDbPolyline
 90
        3
 70
     0
 43
0.0
 10
205.4830951740689
 20
-72.66459300474655
 10
212.4052803707552
 20
-72.66459300474655
 10
217.5780152642552
 20
-68.05676507997882
  0
SPLINE
  5
109
330
70
100
AcDbEntity
  8
Capa 1
 62
     1
370
     9
100
AcDbSpline
210
0.0
220
0.0
230
1.0
 70
     8
 71
     3
 72
     8
 73
     4
 74
     0
 42
0.0000000001
 43
0.0000000001
 40
0.0
 40
0.0
 40
0.0
 40
0.0
 40
1.0
 40
1.0
 40
1.0
 40
1.0
 10
217.5780152642552
 20
-68.05676507997882
 30
0.0
 10
219.467862377741
 20
-68.47664145206245
 30
0.0
 10
221.2064774591136
 20
-69.34869237869719
 30
0.0
 10
222.6535559127277
 20
-70.57600025881574
 30
0.0
  0
LWPOLYLINE
  5
10A
330
70
100
AcDbEntity
  8
Capa 1
 62
     1
370
     9
100
AcDbPolyline
 90
        6
 70
     0
 43
0.0
 10
222.6535559127277
 20
-70.57600025881574
 10
222.7507501577559
 20
-70.67289480621972
 10
218.1827589633985
 20
-74.73165362903237
 10
220.1697542145852
 20
-76.93867304401212
 10
224.7269562944567
 20
-72.87991422119977
 10
224.8133614249991
 20
-72.97680876860342
  0
SPLINE
  5
10B
330
70
100
AcDbEntity
  8
Capa 1
 62
     1
370
     9
100
AcDbSpline
210
0.0
220
0.0
230
1.0
 70
     8
 71
     3
 72
     8
 73
     4
 74
     0
 42
0.0000000001
 43
0.0000000001
 40
0.0
 40
0.0
 40
0.0
 40
0.0
 40
1.0
 40
1.0
 40
1.0
 40
1.0
 10
224.8133614249991
 20
-72.97680876860342
 30
0.0
 10
225.7960929897699
 20
-74.41943786517518
 30
0.0
 10
226.4547822613435
 20
-76.10968636066764
 30
0.0
 10
226.7139976529707
 20
-77.95065970767776
 30
0.0
  0
SPLINE
  5
10C
330
70
100
AcDbEntity
  8
Capa 1
 62
     1
370
     9
100
AcDbSpline
210
0.0
220
0.0
230
1.0
 70
     8
 71
     3
 72
     8
 73
     4
 74
     0
 42
0.0000000001
 43
0.0000000001
 40
0.0
 40
0.0
 40
0.0
 40
0.0
 40
1.0
 40
1.0
 40
1.0
 40
1.0
 10
250.6986602288006
 20
-77.95065970767776
 30
0.0
 10
250.7202384577729
 20
-78.05832031590421
 30
0.0
 10
250.7310275722587
 20
-78.17677003861679
 30
0.0
 10
250.7526058012309
 20
-78.29517365400272
 30
0.0
  0
LWPOLYLINE
  5
10D
330
70
100
AcDbEntity
  8
Capa 1
 62
     1
370
     9
100
AcDbPolyline
 90
        4
 70
     0
 43
0.0
 10
250.7526058012309
 20
-78.29517365400272
 10
250.7418166867445
 20
-78.29517365400272
 10
241.6598720851141
 20
-86.39115917798212
 10
229.478500757058
 20
-86.39115917798212
  0
SPLINE
  5
10E
330
70
100
AcDbEntity
  8
Capa 1
 62
     1
370
     9
100
AcDbSpline
210
0.0
220
0.0
230
1.0
 70
     8
 71
     3
 72
     8
 73
     4
 74
     0
 42
0.0000000001
 43
0.0000000001
 40
0.0
 40
0.0
 40
0.0
 40
0.0
 40
1.0
 40
1.0
 40
1.0
 40
1.0
 10
229.478500757058
 20
-86.39115917798212
 30
0.0
 10
228.3769967182867
 20
-84.88393371647449
 30
0.0
 10
227.6319023161708
 20
-83.09679067357807
 30
0.0
 10
227.3618978100578
 20
-81.13739065751902
 30
0.0
  0
LWPOLYLINE
  5
10F
330
70
100
AcDbEntity
  8
Capa 1
 62
     1
370
     9
100
AcDbPolyline
 90
        8
 70
     0
 43
0.0
 10
227.3618978100578
 20
-81.13739065751902
 10
227.3618978100578
 20
-81.00819792764728
 10
232.7398564154279
 20
-80.99743186682447
 10
232.7398564154279
 20
-81.00819792764728
 10
233.4741617030581
 20
-81.00819792764728
 10
233.4741617030581
 20
-78.04757730874506
 10
227.3618978100578
 20
-78.04757730874506
 10
227.3618978100578
 20
-77.90761851805051
  0
SPLINE
  5
110
330
70
100
AcDbEntity
  8
Capa 1
 62
     1
370
     9
100
AcDbSpline
210
0.0
220
0.0
230
1.0
 70
     8
 71
     3
 72
     8
 73
     4
 74
     0
 42
0.0000000001
 43
0.0000000001
 40
0.0
 40
0.0
 40
0.0
 40
0.0
 40
1.0
 40
1.0
 40
1.0
 40
1.0
 10
227.3618978100578
 20
-77.90761851805051
 30
0.0
 10
227.6319023161708
 20
-75.99128274528235
 30
0.0
 10
228.3662076038009
 20
-74.19337364156312
 30
0.0
 10
229.478500757058
 20
-72.66459300474655
 30
0.0
  0
LWPOLYLINE
  5
111
330
70
100
AcDbEntity
  8
Capa 1
 62
     1
370
     9
100
AcDbPolyline
 90
        3
 70
     0
 43
0.0
 10
229.478500757058
 20
-72.66459300474655
 10
236.4006859537444
 20
-72.66459300474655
 10
241.5734669545717
 20
-68.05676507997882
  0
SPLINE
  5
112
330
70
100
AcDbEntity
  8
Capa 1
 62
     1
370
     9
100
AcDbSpline
210
0.0
220
0.0
230
1.0
 70
     8
 71
     3
 72
     8
 73
     4
 74
     0
 42
0.0000000001
 43
0.0000000001
 40
0.0
 40
0.0
 40
0.0
 40
0.0
 40
1.0
 40
1.0
 40
1.0
 40
1.0
 10
241.5734669545717
 20
-68.05676507997882
 30
0.0
 10
243.4633140680568
 20
-68.47664145206245
 30
0.0
 10
245.2019291494294
 20
-69.34869237869719
 30
0.0
 10
246.6489614957168
 20
-70.57600025881574
 30
0.0
  0
LWPOLYLINE
  5
113
330
70
100
AcDbEntity
  8
Capa 1
 62
     1
370
     9
100
AcDbPolyline
 90
        6
 70
     0
 43
0.0
 10
246.6489614957168
 20
-70.57600025881574
 10
246.7353666262592
 20
-70.67289480621972
 10
242.1782106537143
 20
-74.73165362903237
 10
244.1652520122282
 20
-76.93867304401212
 10
248.7224079847725
 20
-72.87991422119977
 10
248.8088131153149
 20
-72.97680876860342
  0
SPLINE
  5
114
330
70
100
AcDbEntity
  8
Capa 1
 62
     1
370
     9
100
AcDbSpline
210
0.0
220
0.0
230
1.0
 70
     8
 71
     3
 72
     8
 73
     4
 74
     0
 42
0.0000000001
 43
0.0000000001
 40
0.0
 40
0.0
 40
0.0
 40
0.0
 40
1.0
 40
1.0
 40
1.0
 40
1.0
 10
248.8088131153149
 20
-72.97680876860342
 30
0.0
 10
249.7807555655999
 20
-74.41943786517518
 30
0.0
 10
250.4502339516593
 20
-76.10968636066764
 30
0.0
 10
250.6986602288006
 20
-77.95065970767776
 30
0.0
  0
SPLINE
  5
115
330
70
100
AcDbEntity
  8
Capa 1
 62
     1
370
     9
100
AcDbSpline
210
0.0
220
0.0
230
1.0
 70
     8
 71
     3
 72
     8
 73
     4
 74
     0
 42
0.0000000001
 43
0.0000000001
 40
0.0
 40
0.0
 40
0.0
 40
0.0
 40
1.0
 40
1.0
 40
1.0
 40
1.0
 10
274.6941119191164
 20
-77.95065970767776
 30
0.0
 10
274.7156901480886
 20
-78.05832031590421
 30
0.0
 10
274.7264792625752
 20
-78.17677003861679
 30
0.0
 10
274.7372683770609
 20
-78.29517365400272
 30
0.0
  0
LWPOLYLINE
  5
116
330
70
100
AcDbEntity
  8
Capa 1
 62
     1
370
     9
100
AcDbPolyline
 90
        4
 70
     0
 43
0.0
 10
274.7372683770609
 20
-78.29517365400272
 10
274.7372683770609
 20
-78.29517365400272
 10
265.6553237754299
 20
-86.39115917798212
 10
253.463163332888
 20
-86.39115917798212
  0
SPLINE
  5
117
330
70
100
AcDbEntity
  8
Capa 1
 62
     1
370
     9
100
AcDbSpline
210
0.0
220
0.0
230
1.0
 70
     8
 71
     3
 72
     8
 73
     4
 74
     0
 42
0.0000000001
 43
0.0000000001
 40
0.0
 40
0.0
 40
0.0
 40
0.0
 40
1.0
 40
1.0
 40
1.0
 40
1.0
 10
253.463163332888
 20
-86.39115917798212
 30
0.0
 10
252.3724484086031
 20
-84.88393371647449
 30
0.0
 10
251.6273540064872
 20
-83.09679067357807
 30
0.0
 10
251.3573495003736
 20
-81.13739065751902
 30
0.0
  0
LWPOLYLINE
  5
118
330
70
100
AcDbEntity
  8
Capa 1
 62
     1
370
     9
100
AcDbPolyline
 90
        8
 70
     0
 43
0.0
 10
251.3573495003736
 20
-81.13739065751902
 10
251.3573495003736
 20
-81.00819792764728
 10
256.7353081057444
 20
-80.99743186682447
 10
256.7353081057444
 20
-81.00819792764728
 10
257.4696133933739
 20
-81.00819792764728
 10
257.4696133933739
 20
-78.04757730874506
 10
251.3573495003736
 20
-78.04757730874506
 10
251.3573495003736
 20
-77.90761851805051
  0
SPLINE
  5
119
330
70
100
AcDbEntity
  8
Capa 1
 62
     1
370
     9
100
AcDbSpline
210
0.0
220
0.0
230
1.0
 70
     8
 71
     3
 72
     8
 73
     4
 74
     0
 42
0.0000000001
 43
0.0000000001
 40
0.0
 40
0.0
 40
0.0
 40
0.0
 40
1.0
 40
1.0
 40
1.0
 40
1.0
 10
251.3573495003736
 20
-77.90761851805051
 30
0.0
 10
251.6273540064872
 20
-75.99128274528235
 30
0.0
 10
252.3616592941167
 20
-74.19337364156312
 30
0.0
 10
253.4739524473744
 20
-72.66459300474655
 30
0.0
  0
LWPOLYLINE
  5
11A
330
70
100
AcDbEntity
  8
Capa 1
 62
     1
370
     9
100
AcDbPolyline
 90
        3
 70
     0
 43
0.0
 10
253.4739524473744
 20
-72.66459300474655
 10
260.3961376440602
 20
-72.66459300474655
 10
265.5689186448874
 20
-68.05676507997882
  0
SPLINE
  5
11B
330
70
100
AcDbEntity
  8
Capa 1
 62
     1
370
     9
100
AcDbSpline
210
0.0
220
0.0
230
1.0
 70
     8
 71
     3
 72
     8
 73
     4
 74
     0
 42
0.0000000001
 43
0.0000000001
 40
0.0
 40
0.0
 40
0.0
 40
0.0
 40
1.0
 40
1.0
 40
1.0
 40
1.0
 10
265.5689186448874
 20
-68.05676507997882
 30
0.0
 10
267.4587657583732
 20
-68.47664145206245
 30
0.0
 10
269.1973808397459
 20
-69.34869237869719
 30
0.0
 10
270.6444131860326
 20
-70.57600025881574
 30
0.0
  0
LWPOLYLINE
  5
11C
330
70
100
AcDbEntity
  8
Capa 1
 62
     1
370
     9
100
AcDbPolyline
 90
        6
 70
     0
 43
0.0
 10
270.6444131860326
 20
-70.57600025881574
 10
270.730818316575
 20
-70.67289480621972
 10
266.1736623440307
 20
-74.73165362903237
 10
268.1607037025447
 20
-76.93867304401212
 10
272.7178596750889
 20
-72.87991422119977
 10
272.8042648056313
 20
-72.97680876860342
  0
SPLINE
  5
11D
330
70
100
AcDbEntity
  8
Capa 1
 62
     1
370
     9
100
AcDbSpline
210
0.0
220
0.0
230
1.0
 70
     8
 71
     3
 72
     8
 73
     4
 74
     0
 42
0.0000000001
 43
0.0000000001
 40
0.0
 40
0.0
 40
0.0
 40
0.0
 40
1.0
 40
1.0
 40
1.0
 40
1.0
 10
272.8042648056313
 20
-72.97680876860342
 30
0.0
 10
273.7761150412624
 20
-74.41943786517518
 30
0.0
 10
274.4456856419757
 20
-76.10968636066764
 30
0.0
 10
274.6941119191164
 20
-77.95065970767776
 30
0.0
  0
SPLINE
  5
11E
330
70
100
AcDbEntity
  8
Capa 1
 62
     1
370
     9
100
AcDbSpline
210
0.0
220
0.0
230
1.0
 70
     8
 71
     3
 72
     8
 73
     4
 74
     0
 42
0.0000000001
 43
0.0000000001
 40
0.0
 40
0.0
 40
0.0
 40
0.0
 40
1.0
 40
1.0
 40
1.0
 40
1.0
 10
226.7139976529707
 20
-97.04944412408938
 30
0.0
 10
226.7247867674565
 20
-97.16787079313832
 30
0.0
 10
226.7463649964287
 20
-97.28629746218757
 30
0.0
 10
226.7571541109145
 20
-97.40472413123683
 30
0.0
  0
LWPOLYLINE
  5
11F
330
70
100
AcDbEntity
  8
Capa 1
 62
     1
370
     9
100
AcDbPolyline
 90
        4
 70
     0
 43
0.0
 10
226.7571541109145
 20
-97.40472413123683
 10
226.7463649964287
 20
-97.40472413123683
 10
217.6644203947976
 20
-105.5007096552162
 10
205.4830951740689
 20
-105.5007096552162
  0
SPLINE
  5
120
330
70
100
AcDbEntity
  8
Capa 1
 62
     1
370
     9
100
AcDbSpline
210
0.0
220
0.0
230
1.0
 70
     8
 71
     3
 72
     8
 73
     4
 74
     0
 42
0.0000000001
 43
0.0000000001
 40
0.0
 40
0.0
 40
0.0
 40
0.0
 40
1.0
 40
1.0
 40
1.0
 40
1.0
 10
205.4830951740689
 20
-105.5007096552162
 30
0.0
 10
204.3923802497834
 20
-103.9934841937089
 30
0.0
 10
203.636450625855
 20
-102.2063411508125
 30
0.0
 10
203.3664922270687
 20
-100.2469180810898
 30
0.0
  0
LWPOLYLINE
  5
121
330
70
100
AcDbEntity
  8
Capa 1
 62
     1
370
     9
100
AcDbPolyline
 90
        8
 70
     0
 43
0.0
 10
203.3664922270687
 20
-100.2469180810898
 10
203.3664922270687
 20
-100.1177484048813
 10
208.7444047251121
 20
-100.1069823440585
 10
208.7444047251121
 20
-100.1177484048813
 10
209.4787561200683
 20
-100.1177484048813
 10
209.4787561200683
 20
-97.15710473231583
 10
203.3664922270687
 20
-97.15710473231583
 10
203.3664922270687
 20
-97.01714594162128
  0
SPLINE
  5
122
330
70
100
AcDbEntity
  8
Capa 1
 62
     1
370
     9
100
AcDbSpline
210
0.0
220
0.0
230
1.0
 70
     8
 71
     3
 72
     8
 73
     4
 74
     0
 42
0.0000000001
 43
0.0000000001
 40
0.0
 40
0.0
 40
0.0
 40
0.0
 40
1.0
 40
1.0
 40
1.0
 40
1.0
 10
203.3664922270687
 20
-97.01714594162128
 30
0.0
 10
203.636450625855
 20
-95.10081016885312
 30
0.0
 10
204.3815911352976
 20
-93.30290106513357
 30
0.0
 10
205.4830951740689
 20
-91.77414348198064
 30
0.0
  0
LWPOLYLINE
  5
123
330
70
100
AcDbEntity
  8
Capa 1
 62
     1
370
     9
100
AcDbPolyline
 90
        3
 70
     0
 43
0.0
 10
205.4830951740689
 20
-91.77414348198064
 10
212.4052803707552
 20
-91.77414348198064
 10
217.5780152642552
 20
-87.16631555721322
  0
SPLINE
  5
124
330
70
100
AcDbEntity
  8
Capa 1
 62
     1
370
     9
100
AcDbSpline
210
0.0
220
0.0
230
1.0
 70
     8
 71
     3
 72
     8
 73
     4
 74
     0
 42
0.0000000001
 43
0.0000000001
 40
0.0
 40
0.0
 40
0.0
 40
0.0
 40
1.0
 40
1.0
 40
1.0
 40
1.0
 10
217.5780152642552
 20
-87.16631555721322
 30
0.0
 10
219.467862377741
 20
-87.58619192929655
 30
0.0
 10
221.2064774591136
 20
-88.45824285593129
 30
0.0
 10
222.6535559127277
 20
-89.68555073604983
 30
0.0
  0
LWPOLYLINE
  5
125
330
70
100
AcDbEntity
  8
Capa 1
 62
     1
370
     9
100
AcDbPolyline
 90
        6
 70
     0
 43
0.0
 10
222.6535559127277
 20
-89.68555073604983
 10
222.7507501577559
 20
-89.78244528345381
 10
218.1827589633985
 20
-93.84120410626648
 10
220.1697542145852
 20
-96.04822352124621
 10
224.7269562944567
 20
-91.98946469843386
 10
224.8133614249991
 20
-92.08635924583751
  0
SPLINE
  5
126
330
70
100
AcDbEntity
  8
Capa 1
 62
     1
370
     9
100
AcDbSpline
210
0.0
220
0.0
230
1.0
 70
     8
 71
     3
 72
     8
 73
     4
 74
     0
 42
0.0000000001
 43
0.0000000001
 40
0.0
 40
0.0
 40
0.0
 40
0.0
 40
1.0
 40
1.0
 40
1.0
 40
1.0
 10
224.8133614249991
 20
-92.08635924583751
 30
0.0
 10
225.7960929897699
 20
-93.52898834240928
 30
0.0
 10
226.4547822613435
 20
-95.21923683790205
 30
0.0
 10
226.7139976529707
 20
-97.04944412408938
 30
0.0
  0
SPLINE
  5
127
330
70
100
AcDbEntity
  8
Capa 1
 62
     1
370
     9
100
AcDbSpline
210
0.0
220
0.0
230
1.0
 70
     8
 71
     3
 72
     8
 73
     4
 74
     0
 42
0.0000000001
 43
0.0000000001
 40
0.0
 40
0.0
 40
0.0
 40
0.0
 40
1.0
 40
1.0
 40
1.0
 40
1.0
 10
250.6986602288006
 20
-97.04944412408938
 30
0.0
 10
250.7202384577729
 20
-97.16787079313832
 30
0.0
 10
250.7310275722587
 20
-97.28629746218757
 30
0.0
 10
250.7526058012309
 20
-97.40472413123683
 30
0.0
  0
LWPOLYLINE
  5
128
330
70
100
AcDbEntity
  8
Capa 1
 62
     1
370
     9
100
AcDbPolyline
 90
        4
 70
     0
 43
0.0
 10
250.7526058012309
 20
-97.40472413123683
 10
250.7418166867445
 20
-97.40472413123683
 10
241.6598720851141
 20
-105.5007096552162
 10
229.478500757058
 20
-105.5007096552162
  0
SPLINE
  5
129
330
70
100
AcDbEntity
  8
Capa 1
 62
     1
370
     9
100
AcDbSpline
210
0.0
220
0.0
230
1.0
 70
     8
 71
     3
 72
     8
 73
     4
 74
     0
 42
0.0000000001
 43
0.0000000001
 40
0.0
 40
0.0
 40
0.0
 40
0.0
 40
1.0
 40
1.0
 40
1.0
 40
1.0
 10
229.478500757058
 20
-105.5007096552162
 30
0.0
 10
228.3769967182867
 20
-103.9934841937089
 30
0.0
 10
227.6319023161708
 20
-102.2063411508125
 30
0.0
 10
227.3618978100578
 20
-100.2469180810898
 30
0.0
  0
LWPOLYLINE
  5
12A
330
70
100
AcDbEntity
  8
Capa 1
 62
     1
370
     9
100
AcDbPolyline
 90
        8
 70
     0
 43
0.0
 10
227.3618978100578
 20
-100.2469180810898
 10
227.3618978100578
 20
-100.1177484048813
 10
232.7398564154279
 20
-100.1069823440585
 10
232.7398564154279
 20
-100.1177484048813
 10
233.4741617030581
 20
-100.1177484048813
 10
233.4741617030581
 20
-97.15710473231583
 10
227.3618978100578
 20
-97.15710473231583
 10
227.3618978100578
 20
-97.01714594162128
  0
SPLINE
  5
12B
330
70
100
AcDbEntity
  8
Capa 1
 62
     1
370
     9
100
AcDbSpline
210
0.0
220
0.0
230
1.0
 70
     8
 71
     3
 72
     8
 73
     4
 74
     0
 42
0.0000000001
 43
0.0000000001
 40
0.0
 40
0.0
 40
0.0
 40
0.0
 40
1.0
 40
1.0
 40
1.0
 40
1.0
 10
227.3618978100578
 20
-97.01714594162128
 30
0.0
 10
227.6319023161708
 20
-95.10081016885312
 30
0.0
 10
228.3662076038009
 20
-93.30290106513357
 30
0.0
 10
229.478500757058
 20
-91.77414348198064
 30
0.0
  0
LWPOLYLINE
  5
12C
330
70
100
AcDbEntity
  8
Capa 1
 62
     1
370
     9
100
AcDbPolyline
 90
        3
 70
     0
 43
0.0
 10
229.478500757058
 20
-91.77414348198064
 10
236.4006859537444
 20
-91.77414348198064
 10
241.5734669545717
 20
-87.16631555721322
  0
SPLINE
  5
12D
330
70
100
AcDbEntity
  8
Capa 1
 62
     1
370
     9
100
AcDbSpline
210
0.0
220
0.0
230
1.0
 70
     8
 71
     3
 72
     8
 73
     4
 74
     0
 42
0.0000000001
 43
0.0000000001
 40
0.0
 40
0.0
 40
0.0
 40
0.0
 40
1.0
 40
1.0
 40
1.0
 40
1.0
 10
241.5734669545717
 20
-87.16631555721322
 30
0.0
 10
243.4633140680568
 20
-87.58619192929655
 30
0.0
 10
245.2019291494294
 20
-88.45824285593129
 30
0.0
 10
246.6489614957168
 20
-89.68555073604983
 30
0.0
  0
LWPOLYLINE
  5
12E
330
70
100
AcDbEntity
  8
Capa 1
 62
     1
370
     9
100
AcDbPolyline
 90
        6
 70
     0
 43
0.0
 10
246.6489614957168
 20
-89.68555073604983
 10
246.7353666262592
 20
-89.78244528345381
 10
242.1782106537143
 20
-93.84120410626648
 10
244.1652520122282
 20
-96.04822352124621
 10
248.7224079847725
 20
-91.98946469843386
 10
248.8088131153149
 20
-92.08635924583751
  0
SPLINE
  5
12F
330
70
100
AcDbEntity
  8
Capa 1
 62
     1
370
     9
100
AcDbSpline
210
0.0
220
0.0
230
1.0
 70
     8
 71
     3
 72
     8
 73
     4
 74
     0
 42
0.0000000001
 43
0.0000000001
 40
0.0
 40
0.0
 40
0.0
 40
0.0
 40
1.0
 40
1.0
 40
1.0
 40
1.0
 10
248.8088131153149
 20
-92.08635924583751
 30
0.0
 10
249.7807555655999
 20
-93.52898834240928
 30
0.0
 10
250.4502339516593
 20
-95.21923683790205
 30
0.0
 10
250.6986602288006
 20
-97.04944412408938
 30
0.0
  0
SPLINE
  5
130
330
70
100
AcDbEntity
  8
Capa 1
 62
     1
370
     9
100
AcDbSpline
210
0.0
220
0.0
230
1.0
 70
     8
 71
     3
 72
     8
 73
     4
 74
     0
 42
0.0000000001
 43
0.0000000001
 40
0.0
 40
0.0
 40
0.0
 40
0.0
 40
1.0
 40
1.0
 40
1.0
 40
1.0
 10
274.6941119191164
 20
-97.04944412408938
 30
0.0
 10
274.7156901480886
 20
-97.16787079313832
 30
0.0
 10
274.7264792625752
 20
-97.28629746218757
 30
0.0
 10
274.7372683770609
 20
-97.40472413123683
 30
0.0
  0
LWPOLYLINE
  5
131
330
70
100
AcDbEntity
  8
Capa 1
 62
     1
370
     9
100
AcDbPolyline
 90
        4
 70
     0
 43
0.0
 10
274.7372683770609
 20
-97.40472413123683
 10
274.7372683770609
 20
-97.40472413123683
 10
265.6553237754299
 20
-105.5007096552162
 10
253.463163332888
 20
-105.5007096552162
  0
SPLINE
  5
132
330
70
100
AcDbEntity
  8
Capa 1
 62
     1
370
     9
100
AcDbSpline
210
0.0
220
0.0
230
1.0
 70
     8
 71
     3
 72
     8
 73
     4
 74
     0
 42
0.0000000001
 43
0.0000000001
 40
0.0
 40
0.0
 40
0.0
 40
0.0
 40
1.0
 40
1.0
 40
1.0
 40
1.0
 10
253.463163332888
 20
-105.5007096552162
 30
0.0
 10
252.3724484086031
 20
-103.9934841937089
 30
0.0
 10
251.6273540064872
 20
-102.2063411508125
 30
0.0
 10
251.3573495003736
 20
-100.2469180810898
 30
0.0
  0
LWPOLYLINE
  5
133
330
70
100
AcDbEntity
  8
Capa 1
 62
     1
370
     9
100
AcDbPolyline
 90
        8
 70
     0
 43
0.0
 10
251.3573495003736
 20
-100.2469180810898
 10
251.3573495003736
 20
-100.1177484048813
 10
256.7353081057444
 20
-100.1069823440585
 10
256.7353081057444
 20
-100.1177484048813
 10
257.4696133933739
 20
-100.1177484048813
 10
257.4696133933739
 20
-97.15710473231583
 10
251.3573495003736
 20
-97.15710473231583
 10
251.3573495003736
 20
-97.01714594162128
  0
SPLINE
  5
134
330
70
100
AcDbEntity
  8
Capa 1
 62
     1
370
     9
100
AcDbSpline
210
0.0
220
0.0
230
1.0
 70
     8
 71
     3
 72
     8
 73
     4
 74
     0
 42
0.0000000001
 43
0.0000000001
 40
0.0
 40
0.0
 40
0.0
 40
0.0
 40
1.0
 40
1.0
 40
1.0
 40
1.0
 10
251.3573495003736
 20
-97.01714594162128
 30
0.0
 10
251.6273540064872
 20
-95.10081016885312
 30
0.0
 10
252.3616592941167
 20
-93.30290106513357
 30
0.0
 10
253.4739524473744
 20
-91.77414348198064
 30
0.0
  0
LWPOLYLINE
  5
135
330
70
100
AcDbEntity
  8
Capa 1
 62
     1
370
     9
100
AcDbPolyline
 90
        3
 70
     0
 43
0.0
 10
253.4739524473744
 20
-91.77414348198064
 10
260.3961376440602
 20
-91.77414348198064
 10
265.5689186448874
 20
-87.16631555721322
  0
SPLINE
  5
136
330
70
100
AcDbEntity
  8
Capa 1
 62
     1
370
     9
100
AcDbSpline
210
0.0
220
0.0
230
1.0
 70
     8
 71
     3
 72
     8
 73
     4
 74
     0
 42
0.0000000001
 43
0.0000000001
 40
0.0
 40
0.0
 40
0.0
 40
0.0
 40
1.0
 40
1.0
 40
1.0
 40
1.0
 10
265.5689186448874
 20
-87.16631555721322
 30
0.0
 10
267.4587657583732
 20
-87.58619192929655
 30
0.0
 10
269.1973808397459
 20
-88.45824285593129
 30
0.0
 10
270.6444131860326
 20
-89.68555073604983
 30
0.0
  0
LWPOLYLINE
  5
137
330
70
100
AcDbEntity
  8
Capa 1
 62
     1
370
     9
100
AcDbPolyline
 90
        6
 70
     0
 43
0.0
 10
270.6444131860326
 20
-89.68555073604983
 10
270.730818316575
 20
-89.78244528345381
 10
266.1736623440307
 20
-93.84120410626648
 10
268.1607037025447
 20
-96.04822352124621
 10
272.7178596750889
 20
-91.98946469843386
 10
272.8042648056313
 20
-92.08635924583751
  0
SPLINE
  5
138
330
70
100
AcDbEntity
  8
Capa 1
 62
     1
370
     9
100
AcDbSpline
210
0.0
220
0.0
230
1.0
 70
     8
 71
     3
 72
     8
 73
     4
 74
     0
 42
0.0000000001
 43
0.0000000001
 40
0.0
 40
0.0
 40
0.0
 40
0.0
 40
1.0
 40
1.0
 40
1.0
 40
1.0
 10
272.8042648056313
 20
-92.08635924583751
 30
0.0
 10
273.7761150412624
 20
-93.52898834240928
 30
0.0
 10
274.4456856419757
 20
-95.21923683790205
 30
0.0
 10
274.6941119191164
 20
-97.04944412408938
 30
0.0
  0
SPLINE
  5
139
330
70
100
AcDbEntity
  8
Capa 1
 62
     1
370
     9
100
AcDbSpline
210
0.0
220
0.0
230
1.0
 70
     8
 71
     3
 72
     8
 73
     4
 74
     0
 42
0.0000000001
 43
0.0000000001
 40
0.0
 40
0.0
 40
0.0
 40
0.0
 40
1.0
 40
1.0
 40
1.0
 40
1.0
 10
226.7139976529707
 20
-116.1589946013235
 30
0.0
 10
226.7247867674565
 20
-116.2774212703724
 30
0.0
 10
226.7463649964287
 20
-116.3958248857583
 30
0.0
 10
226.7571541109145
 20
-116.5142746084709
 30
0.0
  0
LWPOLYLINE
  5
13A
330
70
100
AcDbEntity
  8
Capa 1
 62
     1
370
     9
100
AcDbPolyline
 90
        4
 70
     0
 43
0.0
 10
226.7571541109145
 20
-116.5142746084709
 10
226.7463649964287
 20
-116.5142746084709
 10
217.6644203947976
 20
-124.6102486056188
 10
205.4830951740689
 20
-124.6102486056188
  0
SPLINE
  5
13B
330
70
100
AcDbEntity
  8
Capa 1
 62
     1
370
     9
100
AcDbSpline
210
0.0
220
0.0
230
1.0
 70
     8
 71
     3
 72
     8
 73
     4
 74
     0
 42
0.0000000001
 43
0.0000000001
 40
0.0
 40
0.0
 40
0.0
 40
0.0
 40
1.0
 40
1.0
 40
1.0
 40
1.0
 10
205.4830951740689
 20
-124.6102486056188
 30
0.0
 10
204.3923802497834
 20
-123.1030231441112
 30
0.0
 10
203.636450625855
 20
-121.3158685743829
 30
0.0
 10
203.3664922270687
 20
-119.3564685583239
 30
0.0
  0
LWPOLYLINE
  5
13C
330
70
100
AcDbEntity
  8
Capa 1
 62
     1
370
     9
100
AcDbPolyline
 90
        8
 70
     0
 43
0.0
 10
203.3664922270687
 20
-119.3564685583239
 10
203.3664922270687
 20
-119.2272758284518
 10
208.7444047251121
 20
-119.2165328212926
 10
208.7444047251121
 20
-119.2272758284518
 10
209.4787561200683
 20
-119.2272758284518
 10
209.4787561200683
 20
-116.2666321558866
 10
203.3664922270687
 20
-116.2666321558866
 10
203.3664922270687
 20
-116.1266964188554
  0
SPLINE
  5
13D
330
70
100
AcDbEntity
  8
Capa 1
 62
     1
370
     9
100
AcDbSpline
210
0.0
220
0.0
230
1.0
 70
     8
 71
     3
 72
     8
 73
     4
 74
     0
 42
0.0000000001
 43
0.0000000001
 40
0.0
 40
0.0
 40
0.0
 40
0.0
 40
1.0
 40
1.0
 40
1.0
 40
1.0
 10
203.3664922270687
 20
-116.1266964188554
 30
0.0
 10
203.636450625855
 20
-114.2103375924236
 30
0.0
 10
204.3815911352976
 20
-112.4124284887043
 30
0.0
 10
205.4830951740689
 20
-110.8836939592147
 30
0.0
  0
LWPOLYLINE
  5
13E
330
70
100
AcDbEntity
  8
Capa 1
 62
     1
370
     9
100
AcDbPolyline
 90
        3
 70
     0
 43
0.0
 10
205.4830951740689
 20
-110.8836939592147
 10
212.4052803707552
 20
-110.8836939592147
 10
217.5780152642552
 20
-106.2758660344473
  0
SPLINE
  5
13F
330
70
100
AcDbEntity
  8
Capa 1
 62
     1
370
     9
100
AcDbSpline
210
0.0
220
0.0
230
1.0
 70
     8
 71
     3
 72
     8
 73
     4
 74
     0
 42
0.0000000001
 43
0.0000000001
 40
0.0
 40
0.0
 40
0.0
 40
0.0
 40
1.0
 40
1.0
 40
1.0
 40
1.0
 10
217.5780152642552
 20
-106.2758660344473
 30
0.0
 10
219.467862377741
 20
-106.695719352867
 30
0.0
 10
221.2064774591136
 20
-107.5677702795017
 30
0.0
 10
222.6535559127277
 20
-108.7950781596206
 30
0.0
  0
LWPOLYLINE
  5
140
330
70
100
AcDbEntity
  8
Capa 1
 62
     1
370
     9
100
AcDbPolyline
 90
        6
 70
     0
 43
0.0
 10
222.6535559127277
 20
-108.7950781596206
 10
222.7507501577559
 20
-108.8919957606879
 10
218.1827589633985
 20
-112.9507315298369
 10
220.1697542145852
 20
-115.157750944817
 10
224.7269562944567
 20
-111.0990151756683
 10
224.8133614249991
 20
-111.1958866694083
  0
SPLINE
  5
141
330
70
100
AcDbEntity
  8
Capa 1
 62
     1
370
     9
100
AcDbSpline
210
0.0
220
0.0
230
1.0
 70
     8
 71
     3
 72
     8
 73
     4
 74
     0
 42
0.0000000001
 43
0.0000000001
 40
0.0
 40
0.0
 40
0.0
 40
0.0
 40
1.0
 40
1.0
 40
1.0
 40
1.0
 10
224.8133614249991
 20
-111.1958866694083
 30
0.0
 10
225.7960929897699
 20
-112.6385388196434
 30
0.0
 10
226.4547822613435
 20
-114.3287873151361
 30
0.0
 10
226.7139976529707
 20
-116.1589946013235
 30
0.0
  0
SPLINE
  5
142
330
70
100
AcDbEntity
  8
Capa 1
 62
     1
370
     9
100
AcDbSpline
210
0.0
220
0.0
230
1.0
 70
     8
 71
     3
 72
     8
 73
     4
 74
     0
 42
0.0000000001
 43
0.0000000001
 40
0.0
 40
0.0
 40
0.0
 40
0.0
 40
1.0
 40
1.0
 40
1.0
 40
1.0
 10
250.6986602288006
 20
-116.1589946013235
 30
0.0
 10
250.7202384577729
 20
-116.2774212703724
 30
0.0
 10
250.7310275722587
 20
-116.3958248857583
 30
0.0
 10
250.7526058012309
 20
-116.5142746084709
 30
0.0
  0
LWPOLYLINE
  5
143
330
70
100
AcDbEntity
  8
Capa 1
 62
     1
370
     9
100
AcDbPolyline
 90
        4
 70
     0
 43
0.0
 10
250.7526058012309
 20
-116.5142746084709
 10
250.7418166867445
 20
-116.5142746084709
 10
241.6598720851141
 20
-124.6102486056188
 10
229.478500757058
 20
-124.6102486056188
  0
SPLINE
  5
144
330
70
100
AcDbEntity
  8
Capa 1
 62
     1
370
     9
100
AcDbSpline
210
0.0
220
0.0
230
1.0
 70
     8
 71
     3
 72
     8
 73
     4
 74
     0
 42
0.0000000001
 43
0.0000000001
 40
0.0
 40
0.0
 40
0.0
 40
0.0
 40
1.0
 40
1.0
 40
1.0
 40
1.0
 10
229.478500757058
 20
-124.6102486056188
 30
0.0
 10
228.3769967182867
 20
-123.1030231441112
 30
0.0
 10
227.6319023161708
 20
-121.3158685743829
 30
0.0
 10
227.3618978100578
 20
-119.3564685583239
 30
0.0
  0
LWPOLYLINE
  5
145
330
70
100
AcDbEntity
  8
Capa 1
 62
     1
370
     9
100
AcDbPolyline
 90
        8
 70
     0
 43
0.0
 10
227.3618978100578
 20
-119.3564685583239
 10
227.3618978100578
 20
-119.2272758284518
 10
232.7398564154279
 20
-119.2165328212926
 10
232.7398564154279
 20
-119.2272758284518
 10
233.4741617030581
 20
-119.2272758284518
 10
233.4741617030581
 20
-116.2666321558866
 10
227.3618978100578
 20
-116.2666321558866
 10
227.3618978100578
 20
-116.1266964188554
  0
SPLINE
  5
146
330
70
100
AcDbEntity
  8
Capa 1
 62
     1
370
     9
100
AcDbSpline
210
0.0
220
0.0
230
1.0
 70
     8
 71
     3
 72
     8
 73
     4
 74
     0
 42
0.0000000001
 43
0.0000000001
 40
0.0
 40
0.0
 40
0.0
 40
0.0
 40
1.0
 40
1.0
 40
1.0
 40
1.0
 10
227.3618978100578
 20
-116.1266964188554
 30
0.0
 10
227.6319023161708
 20
-114.2103375924236
 30
0.0
 10
228.3662076038009
 20
-112.4124284887043
 30
0.0
 10
229.478500757058
 20
-110.8836939592147
 30
0.0
  0
LWPOLYLINE
  5
147
330
70
100
AcDbEntity
  8
Capa 1
 62
     1
370
     9
100
AcDbPolyline
 90
        3
 70
     0
 43
0.0
 10
229.478500757058
 20
-110.8836939592147
 10
236.4006859537444
 20
-110.8836939592147
 10
241.5734669545717
 20
-106.2758660344473
  0
SPLINE
  5
148
330
70
100
AcDbEntity
  8
Capa 1
 62
     1
370
     9
100
AcDbSpline
210
0.0
220
0.0
230
1.0
 70
     8
 71
     3
 72
     8
 73
     4
 74
     0
 42
0.0000000001
 43
0.0000000001
 40
0.0
 40
0.0
 40
0.0
 40
0.0
 40
1.0
 40
1.0
 40
1.0
 40
1.0
 10
241.5734669545717
 20
-106.2758660344473
 30
0.0
 10
243.4633140680568
 20
-106.695719352867
 30
0.0
 10
245.2019291494294
 20
-107.5677702795017
 30
0.0
 10
246.6489614957168
 20
-108.7950781596206
 30
0.0
  0
LWPOLYLINE
  5
149
330
70
100
AcDbEntity
  8
Capa 1
 62
     1
370
     9
100
AcDbPolyline
 90
        6
 70
     0
 43
0.0
 10
246.6489614957168
 20
-108.7950781596206
 10
246.7353666262592
 20
-108.8919957606879
 10
242.1782106537143
 20
-112.9507315298369
 10
244.1652520122282
 20
-115.157750944817
 10
248.7224079847725
 20
-111.0990151756683
 10
248.8088131153149
 20
-111.1958866694083
  0
SPLINE
  5
14A
330
70
100
AcDbEntity
  8
Capa 1
 62
     1
370
     9
100
AcDbSpline
210
0.0
220
0.0
230
1.0
 70
     8
 71
     3
 72
     8
 73
     4
 74
     0
 42
0.0000000001
 43
0.0000000001
 40
0.0
 40
0.0
 40
0.0
 40
0.0
 40
1.0
 40
1.0
 40
1.0
 40
1.0
 10
248.8088131153149
 20
-111.1958866694083
 30
0.0
 10
249.7807555655999
 20
-112.6385388196434
 30
0.0
 10
250.4502339516593
 20
-114.3287873151361
 30
0.0
 10
250.6986602288006
 20
-116.1589946013235
 30
0.0
  0
SPLINE
  5
14B
330
70
100
AcDbEntity
  8
Capa 1
 62
     1
370
     9
100
AcDbSpline
210
0.0
220
0.0
230
1.0
 70
     8
 71
     3
 72
     8
 73
     4
 74
     0
 42
0.0000000001
 43
0.0000000001
 40
0.0
 40
0.0
 40
0.0
 40
0.0
 40
1.0
 40
1.0
 40
1.0
 40
1.0
 10
274.6941119191164
 20
-116.1589946013235
 30
0.0
 10
274.7156901480886
 20
-116.2774212703724
 30
0.0
 10
274.7264792625752
 20
-116.3958248857583
 30
0.0
 10
274.7372683770609
 20
-116.5142746084709
 30
0.0
  0
LWPOLYLINE
  5
14C
330
70
100
AcDbEntity
  8
Capa 1
 62
     1
370
     9
100
AcDbPolyline
 90
        4
 70
     0
 43
0.0
 10
274.7372683770609
 20
-116.5142746084709
 10
274.7372683770609
 20
-116.5142746084709
 10
265.6553237754299
 20
-124.6102486056188
 10
253.463163332888
 20
-124.6102486056188
  0
SPLINE
  5
14D
330
70
100
AcDbEntity
  8
Capa 1
 62
     1
370
     9
100
AcDbSpline
210
0.0
220
0.0
230
1.0
 70
     8
 71
     3
 72
     8
 73
     4
 74
     0
 42
0.0000000001
 43
0.0000000001
 40
0.0
 40
0.0
 40
0.0
 40
0.0
 40
1.0
 40
1.0
 40
1.0
 40
1.0
 10
253.463163332888
 20
-124.6102486056188
 30
0.0
 10
252.3724484086031
 20
-123.1030231441112
 30
0.0
 10
251.6273540064872
 20
-121.3158685743829
 30
0.0
 10
251.3573495003736
 20
-119.3564685583239
 30
0.0
  0
LWPOLYLINE
  5
14E
330
70
100
AcDbEntity
  8
Capa 1
 62
     1
370
     9
100
AcDbPolyline
 90
        8
 70
     0
 43
0.0
 10
251.3573495003736
 20
-119.3564685583239
 10
251.3573495003736
 20
-119.2272758284518
 10
256.7353081057444
 20
-119.2165328212926
 10
256.7353081057444
 20
-119.2272758284518
 10
257.4696133933739
 20
-119.2272758284518
 10
257.4696133933739
 20
-116.2666321558866
 10
251.3573495003736
 20
-116.2666321558866
 10
251.3573495003736
 20
-116.1266964188554
  0
SPLINE
  5
14F
330
70
100
AcDbEntity
  8
Capa 1
 62
     1
370
     9
100
AcDbSpline
210
0.0
220
0.0
230
1.0
 70
     8
 71
     3
 72
     8
 73
     4
 74
     0
 42
0.0000000001
 43
0.0000000001
 40
0.0
 40
0.0
 40
0.0
 40
0.0
 40
1.0
 40
1.0
 40
1.0
 40
1.0
 10
251.3573495003736
 20
-116.1266964188554
 30
0.0
 10
251.6273540064872
 20
-114.2103375924236
 30
0.0
 10
252.3616592941167
 20
-112.4124284887043
 30
0.0
 10
253.4739524473744
 20
-110.8836939592147
 30
0.0
  0
LWPOLYLINE
  5
150
330
70
100
AcDbEntity
  8
Capa 1
 62
     1
370
     9
100
AcDbPolyline
 90
        3
 70
     0
 43
0.0
 10
253.4739524473744
 20
-110.8836939592147
 10
260.3961376440602
 20
-110.8836939592147
 10
265.5689186448874
 20
-106.2758660344473
  0
SPLINE
  5
151
330
70
100
AcDbEntity
  8
Capa 1
 62
     1
370
     9
100
AcDbSpline
210
0.0
220
0.0
230
1.0
 70
     8
 71
     3
 72
     8
 73
     4
 74
     0
 42
0.0000000001
 43
0.0000000001
 40
0.0
 40
0.0
 40
0.0
 40
0.0
 40
1.0
 40
1.0
 40
1.0
 40
1.0
 10
265.5689186448874
 20
-106.2758660344473
 30
0.0
 10
267.4587657583732
 20
-106.695719352867
 30
0.0
 10
269.1973808397459
 20
-107.5677702795017
 30
0.0
 10
270.6444131860326
 20
-108.7950781596206
 30
0.0
  0
LWPOLYLINE
  5
152
330
70
100
AcDbEntity
  8
Capa 1
 62
     1
370
     9
100
AcDbPolyline
 90
        6
 70
     0
 43
0.0
 10
270.6444131860326
 20
-108.7950781596206
 10
270.730818316575
 20
-108.8919957606879
 10
266.1736623440307
 20
-112.9507315298369
 10
268.1607037025447
 20
-115.157750944817
 10
272.7178596750889
 20
-111.0990151756683
 10
272.8042648056313
 20
-111.1958866694083
  0
SPLINE
  5
153
330
70
100
AcDbEntity
  8
Capa 1
 62
     1
370
     9
100
AcDbSpline
210
0.0
220
0.0
230
1.0
 70
     8
 71
     3
 72
     8
 73
     4
 74
     0
 42
0.0000000001
 43
0.0000000001
 40
0.0
 40
0.0
 40
0.0
 40
0.0
 40
1.0
 40
1.0
 40
1.0
 40
1.0
 10
272.8042648056313
 20
-111.1958866694083
 30
0.0
 10
273.7761150412624
 20
-112.6385388196434
 30
0.0
 10
274.4456856419757
 20
-114.3287873151361
 30
0.0
 10
274.6941119191164
 20
-116.1589946013235
 30
0.0
  0
SPLINE
  5
154
330
70
100
AcDbEntity
  8
Capa 1
 62
     1
370
     9
100
AcDbSpline
210
0.0
220
0.0
230
1.0
 70
     8
 71
     3
 72
     8
 73
     4
 74
     0
 42
0.0000000001
 43
0.0000000001
 40
0.0
 40
0.0
 40
0.0
 40
0.0
 40
1.0
 40
1.0
 40
1.0
 40
1.0
 10
226.7139976529707
 20
-135.2685335517257
 30
0.0
 10
226.7247867674565
 20
-135.386960220775
 30
0.0
 10
226.7463649964287
 20
-135.5053753629924
 30
0.0
 10
226.7571541109145
 20
-135.6238020320413
 30
0.0
  0
LWPOLYLINE
  5
155
330
70
100
AcDbEntity
  8
Capa 1
 62
     1
370
     9
100
AcDbPolyline
 90
        4
 70
     0
 43
0.0
 10
226.7571541109145
 20
-135.6238020320413
 10
226.7463649964287
 20
-135.6238020320413
 10
217.6644203947976
 20
-143.7197875560211
 10
205.4830951740689
 20
-143.7197875560211
  0
SPLINE
  5
156
330
70
100
AcDbEntity
  8
Capa 1
 62
     1
370
     9
100
AcDbSpline
210
0.0
220
0.0
230
1.0
 70
     8
 71
     3
 72
     8
 73
     4
 74
     0
 42
0.0000000001
 43
0.0000000001
 40
0.0
 40
0.0
 40
0.0
 40
0.0
 40
1.0
 40
1.0
 40
1.0
 40
1.0
 10
205.4830951740689
 20
-143.7197875560211
 30
0.0
 10
204.3923802497834
 20
-142.2125620945134
 30
0.0
 10
203.636450625855
 20
-140.4254190516167
 30
0.0
 10
203.3664922270687
 20
-138.466019035558
 30
0.0
  0
LWPOLYLINE
  5
157
330
70
100
AcDbEntity
  8
Capa 1
 62
     1
370
     9
100
AcDbPolyline
 90
        8
 70
     0
 43
0.0
 10
203.3664922270687
 20
-138.466019035558
 10
203.3664922270687
 20
-138.3368263056869
 10
208.7444047251121
 20
-138.3260602448634
 10
208.7444047251121
 20
-138.3368263056869
 10
209.4787561200683
 20
-138.3368263056869
 10
209.4787561200683
 20
-135.3761941599522
 10
203.3664922270687
 20
-135.3761941599522
 10
203.3664922270687
 20
-135.2362353692579
  0
SPLINE
  5
158
330
70
100
AcDbEntity
  8
Capa 1
 62
     1
370
     9
100
AcDbSpline
210
0.0
220
0.0
230
1.0
 70
     8
 71
     3
 72
     8
 73
     4
 74
     0
 42
0.0000000001
 43
0.0000000001
 40
0.0
 40
0.0
 40
0.0
 40
0.0
 40
1.0
 40
1.0
 40
1.0
 40
1.0
 10
203.3664922270687
 20
-135.2362353692579
 30
0.0
 10
203.636450625855
 20
-133.3198995964895
 30
0.0
 10
204.3815911352976
 20
-131.5219789659384
 30
0.0
 10
205.4830951740689
 20
-129.9932213827855
 30
0.0
  0
LWPOLYLINE
  5
159
330
70
100
AcDbEntity
  8
Capa 1
 62
     1
370
     9
100
AcDbPolyline
 90
        3
 70
     0
 43
0.0
 10
205.4830951740689
 20
-129.9932213827855
 10
212.4052803707552
 20
-129.9932213827855
 10
217.5780152642552
 20
-125.3853934580178
  0
SPLINE
  5
15A
330
70
100
AcDbEntity
  8
Capa 1
 62
     1
370
     9
100
AcDbSpline
210
0.0
220
0.0
230
1.0
 70
     8
 71
     3
 72
     8
 73
     4
 74
     0
 42
0.0000000001
 43
0.0000000001
 40
0.0
 40
0.0
 40
0.0
 40
0.0
 40
1.0
 40
1.0
 40
1.0
 40
1.0
 10
217.5780152642552
 20
-125.3853934580178
 30
0.0
 10
219.467862377741
 20
-125.8052698301014
 30
0.0
 10
221.2064774591136
 20
-126.6773092299043
 30
0.0
 10
222.6535559127277
 20
-127.9046286368547
 30
0.0
  0
LWPOLYLINE
  5
15B
330
70
100
AcDbEntity
  8
Capa 1
 62
     1
370
     9
100
AcDbPolyline
 90
        6
 70
     0
 43
0.0
 10
222.6535559127277
 20
-127.9046286368547
 10
222.7507501577559
 20
-128.0015231842583
 10
218.1827589633985
 20
-132.060282007071
 10
220.1697542145852
 20
-134.267301422051
 10
224.7269562944567
 20
-130.2085425992384
 10
224.8133614249991
 20
-130.3054371466424
  0
SPLINE
  5
15C
330
70
100
AcDbEntity
  8
Capa 1
 62
     1
370
     9
100
AcDbSpline
210
0.0
220
0.0
230
1.0
 70
     8
 71
     3
 72
     8
 73
     4
 74
     0
 42
0.0000000001
 43
0.0000000001
 40
0.0
 40
0.0
 40
0.0
 40
0.0
 40
1.0
 40
1.0
 40
1.0
 40
1.0
 10
224.8133614249991
 20
-130.3054371466424
 30
0.0
 10
225.7960929897699
 20
-131.7480662432141
 30
0.0
 10
226.4547822613435
 20
-133.4383262655384
 30
0.0
 10
226.7139976529707
 20
-135.2685335517257
 30
0.0
  0
SPLINE
  5
15D
330
70
100
AcDbEntity
  8
Capa 1
 62
     1
370
     9
100
AcDbSpline
210
0.0
220
0.0
230
1.0
 70
     8
 71
     3
 72
     8
 73
     4
 74
     0
 42
0.0000000001
 43
0.0000000001
 40
0.0
 40
0.0
 40
0.0
 40
0.0
 40
1.0
 40
1.0
 40
1.0
 40
1.0
 10
250.6986602288006
 20
-135.2685335517257
 30
0.0
 10
250.7202384577729
 20
-135.386960220775
 30
0.0
 10
250.7310275722587
 20
-135.5053753629924
 30
0.0
 10
250.7526058012309
 20
-135.6238020320413
 30
0.0
  0
LWPOLYLINE
  5
15E
330
70
100
AcDbEntity
  8
Capa 1
 62
     1
370
     9
100
AcDbPolyline
 90
        4
 70
     0
 43
0.0
 10
250.7526058012309
 20
-135.6238020320413
 10
250.7418166867445
 20
-135.6238020320413
 10
241.6598720851141
 20
-143.7197875560211
 10
229.478500757058
 20
-143.7197875560211
  0
SPLINE
  5
15F
330
70
100
AcDbEntity
  8
Capa 1
 62
     1
370
     9
100
AcDbSpline
210
0.0
220
0.0
230
1.0
 70
     8
 71
     3
 72
     8
 73
     4
 74
     0
 42
0.0000000001
 43
0.0000000001
 40
0.0
 40
0.0
 40
0.0
 40
0.0
 40
1.0
 40
1.0
 40
1.0
 40
1.0
 10
229.478500757058
 20
-143.7197875560211
 30
0.0
 10
228.3769967182867
 20
-142.2125620945134
 30
0.0
 10
227.6319023161708
 20
-140.4254190516167
 30
0.0
 10
227.3618978100578
 20
-138.466019035558
 30
0.0
  0
LWPOLYLINE
  5
160
330
70
100
AcDbEntity
  8
Capa 1
 62
     1
370
     9
100
AcDbPolyline
 90
        8
 70
     0
 43
0.0
 10
227.3618978100578
 20
-138.466019035558
 10
227.3618978100578
 20
-138.3368263056869
 10
232.7398564154279
 20
-138.3260602448634
 10
232.7398564154279
 20
-138.3368263056869
 10
233.4741617030581
 20
-138.3368263056869
 10
233.4741617030581
 20
-135.3761941599522
 10
227.3618978100578
 20
-135.3761941599522
 10
227.3618978100578
 20
-135.2362353692579
  0
SPLINE
  5
161
330
70
100
AcDbEntity
  8
Capa 1
 62
     1
370
     9
100
AcDbSpline
210
0.0
220
0.0
230
1.0
 70
     8
 71
     3
 72
     8
 73
     4
 74
     0
 42
0.0000000001
 43
0.0000000001
 40
0.0
 40
0.0
 40
0.0
 40
0.0
 40
1.0
 40
1.0
 40
1.0
 40
1.0
 10
227.3618978100578
 20
-135.2362353692579
 30
0.0
 10
227.6319023161708
 20
-133.3198995964895
 30
0.0
 10
228.3662076038009
 20
-131.5219789659384
 30
0.0
 10
229.478500757058
 20
-129.9932213827855
 30
0.0
  0
LWPOLYLINE
  5
162
330
70
100
AcDbEntity
  8
Capa 1
 62
     1
370
     9
100
AcDbPolyline
 90
        3
 70
     0
 43
0.0
 10
229.478500757058
 20
-129.9932213827855
 10
236.4006859537444
 20
-129.9932213827855
 10
241.5734669545717
 20
-125.3853934580178
  0
SPLINE
  5
163
330
70
100
AcDbEntity
  8
Capa 1
 62
     1
370
     9
100
AcDbSpline
210
0.0
220
0.0
230
1.0
 70
     8
 71
     3
 72
     8
 73
     4
 74
     0
 42
0.0000000001
 43
0.0000000001
 40
0.0
 40
0.0
 40
0.0
 40
0.0
 40
1.0
 40
1.0
 40
1.0
 40
1.0
 10
241.5734669545717
 20
-125.3853934580178
 30
0.0
 10
243.4633140680568
 20
-125.8052698301014
 30
0.0
 10
245.2019291494294
 20
-126.6773092299043
 30
0.0
 10
246.6489614957168
 20
-127.9046286368547
 30
0.0
  0
LWPOLYLINE
  5
164
330
70
100
AcDbEntity
  8
Capa 1
 62
     1
370
     9
100
AcDbPolyline
 90
        6
 70
     0
 43
0.0
 10
246.6489614957168
 20
-127.9046286368547
 10
246.7353666262592
 20
-128.0015231842583
 10
242.1782106537143
 20
-132.060282007071
 10
244.1652520122282
 20
-134.267301422051
 10
248.7224079847725
 20
-130.2085425992384
 10
248.8088131153149
 20
-130.3054371466424
  0
SPLINE
  5
165
330
70
100
AcDbEntity
  8
Capa 1
 62
     1
370
     9
100
AcDbSpline
210
0.0
220
0.0
230
1.0
 70
     8
 71
     3
 72
     8
 73
     4
 74
     0
 42
0.0000000001
 43
0.0000000001
 40
0.0
 40
0.0
 40
0.0
 40
0.0
 40
1.0
 40
1.0
 40
1.0
 40
1.0
 10
248.8088131153149
 20
-130.3054371466424
 30
0.0
 10
249.7807555655999
 20
-131.7480662432141
 30
0.0
 10
250.4502339516593
 20
-133.4383262655384
 30
0.0
 10
250.6986602288006
 20
-135.2685335517257
 30
0.0
  0
SPLINE
  5
166
330
70
100
AcDbEntity
  8
Capa 1
 62
     1
370
     9
100
AcDbSpline
210
0.0
220
0.0
230
1.0
 70
     8
 71
     3
 72
     8
 73
     4
 74
     0
 42
0.0000000001
 43
0.0000000001
 40
0.0
 40
0.0
 40
0.0
 40
0.0
 40
1.0
 40
1.0
 40
1.0
 40
1.0
 10
274.6941119191164
 20
-135.2685335517257
 30
0.0
 10
274.7156901480886
 20
-135.386960220775
 30
0.0
 10
274.7264792625752
 20
-135.5053753629924
 30
0.0
 10
274.7372683770609
 20
-135.6238020320413
 30
0.0
  0
LWPOLYLINE
  5
167
330
70
100
AcDbEntity
  8
Capa 1
 62
     1
370
     9
100
AcDbPolyline
 90
        4
 70
     0
 43
0.0
 10
274.7372683770609
 20
-135.6238020320413
 10
274.7372683770609
 20
-135.6238020320413
 10
265.6553237754299
 20
-143.7197875560211
 10
253.463163332888
 20
-143.7197875560211
  0
SPLINE
  5
168
330
70
100
AcDbEntity
  8
Capa 1
 62
     1
370
     9
100
AcDbSpline
210
0.0
220
0.0
230
1.0
 70
     8
 71
     3
 72
     8
 73
     4
 74
     0
 42
0.0000000001
 43
0.0000000001
 40
0.0
 40
0.0
 40
0.0
 40
0.0
 40
1.0
 40
1.0
 40
1.0
 40
1.0
 10
253.463163332888
 20
-143.7197875560211
 30
0.0
 10
252.3724484086031
 20
-142.2125620945134
 30
0.0
 10
251.6273540064872
 20
-140.4254190516167
 30
0.0
 10
251.3573495003736
 20
-138.466019035558
 30
0.0
  0
LWPOLYLINE
  5
169
330
70
100
AcDbEntity
  8
Capa 1
 62
     1
370
     9
100
AcDbPolyline
 90
        8
 70
     0
 43
0.0
 10
251.3573495003736
 20
-138.466019035558
 10
251.3573495003736
 20
-138.3368263056869
 10
256.7353081057444
 20
-138.3260602448634
 10
256.7353081057444
 20
-138.3368263056869
 10
257.4696133933739
 20
-138.3368263056869
 10
257.4696133933739
 20
-135.3761941599522
 10
251.3573495003736
 20
-135.3761941599522
 10
251.3573495003736
 20
-135.2362353692579
  0
SPLINE
  5
16A
330
70
100
AcDbEntity
  8
Capa 1
 62
     1
370
     9
100
AcDbSpline
210
0.0
220
0.0
230
1.0
 70
     8
 71
     3
 72
     8
 73
     4
 74
     0
 42
0.0000000001
 43
0.0000000001
 40
0.0
 40
0.0
 40
0.0
 40
0.0
 40
1.0
 40
1.0
 40
1.0
 40
1.0
 10
251.3573495003736
 20
-135.2362353692579
 30
0.0
 10
251.6273540064872
 20
-133.3198995964895
 30
0.0
 10
252.3616592941167
 20
-131.5219789659384
 30
0.0
 10
253.4739524473744
 20
-129.9932213827855
 30
0.0
  0
LWPOLYLINE
  5
16B
330
70
100
AcDbEntity
  8
Capa 1
 62
     1
370
     9
100
AcDbPolyline
 90
        3
 70
     0
 43
0.0
 10
253.4739524473744
 20
-129.9932213827855
 10
260.3961376440602
 20
-129.9932213827855
 10
265.5689186448874
 20
-125.3853934580178
  0
SPLINE
  5
16C
330
70
100
AcDbEntity
  8
Capa 1
 62
     1
370
     9
100
AcDbSpline
210
0.0
220
0.0
230
1.0
 70
     8
 71
     3
 72
     8
 73
     4
 74
     0
 42
0.0000000001
 43
0.0000000001
 40
0.0
 40
0.0
 40
0.0
 40
0.0
 40
1.0
 40
1.0
 40
1.0
 40
1.0
 10
265.5689186448874
 20
-125.3853934580178
 30
0.0
 10
267.4587657583732
 20
-125.8052698301014
 30
0.0
 10
269.1973808397459
 20
-126.6773092299043
 30
0.0
 10
270.6444131860326
 20
-127.9046286368547
 30
0.0
  0
LWPOLYLINE
  5
16D
330
70
100
AcDbEntity
  8
Capa 1
 62
     1
370
     9
100
AcDbPolyline
 90
        6
 70
     0
 43
0.0
 10
270.6444131860326
 20
-127.9046286368547
 10
270.730818316575
 20
-128.0015231842583
 10
266.1736623440307
 20
-132.060282007071
 10
268.1607037025447
 20
-134.267301422051
 10
272.7178596750889
 20
-130.2085425992384
 10
272.8042648056313
 20
-130.3054371466424
  0
SPLINE
  5
16E
330
70
100
AcDbEntity
  8
Capa 1
 62
     1
370
     9
100
AcDbSpline
210
0.0
220
0.0
230
1.0
 70
     8
 71
     3
 72
     8
 73
     4
 74
     0
 42
0.0000000001
 43
0.0000000001
 40
0.0
 40
0.0
 40
0.0
 40
0.0
 40
1.0
 40
1.0
 40
1.0
 40
1.0
 10
272.8042648056313
 20
-130.3054371466424
 30
0.0
 10
273.7761150412624
 20
-131.7480662432141
 30
0.0
 10
274.4456856419757
 20
-133.4383262655384
 30
0.0
 10
274.6941119191164
 20
-135.2685335517257
 30
0.0
  0
SPLINE
  5
16F
330
70
100
AcDbEntity
  8
Capa 1
 62
     1
370
     9
100
AcDbSpline
210
0.0
220
0.0
230
1.0
 70
     8
 71
     3
 72
     8
 73
     4
 74
     0
 42
0.0000000001
 43
0.0000000001
 40
0.0
 40
0.0
 40
0.0
 40
0.0
 40
1.0
 40
1.0
 40
1.0
 40
1.0
 10
226.7139976529707
 20
-154.3780725021283
 30
0.0
 10
226.7247867674565
 20
-154.4964991711772
 30
0.0
 10
226.7463649964287
 20
-154.6149258402265
 30
0.0
 10
226.7571541109145
 20
-154.7333409824439
 30
0.0
  0
LWPOLYLINE
  5
170
330
70
100
AcDbEntity
  8
Capa 1
 62
     1
370
     9
100
AcDbPolyline
 90
        4
 70
     0
 43
0.0
 10
226.7571541109145
 20
-154.7333409824439
 10
226.7463649964287
 20
-154.7333409824439
 10
217.6644203947976
 20
-162.8293380332552
 10
205.4830951740689
 20
-162.8293380332552
  0
SPLINE
  5
171
330
70
100
AcDbEntity
  8
Capa 1
 62
     1
370
     9
100
AcDbSpline
210
0.0
220
0.0
230
1.0
 70
     8
 71
     3
 72
     8
 73
     4
 74
     0
 42
0.0000000001
 43
0.0000000001
 40
0.0
 40
0.0
 40
0.0
 40
0.0
 40
1.0
 40
1.0
 40
1.0
 40
1.0
 10
205.4830951740689
 20
-162.8293380332552
 30
0.0
 10
204.3923802497834
 20
-161.322101044916
 30
0.0
 10
203.636450625855
 20
-159.5349580020193
 30
0.0
 10
203.3664922270687
 20
-157.5755579859602
 30
0.0
  0
LWPOLYLINE
  5
172
330
70
100
AcDbEntity
  8
Capa 1
 62
     1
370
     9
100
AcDbPolyline
 90
        8
 70
     0
 43
0.0
 10
203.3664922270687
 20
-157.5755579859602
 10
203.3664922270687
 20
-157.4463652560885
 10
208.7444047251121
 20
-157.4355991952657
 10
208.7444047251121
 20
-157.4463652560885
 10
209.4787561200683
 20
-157.4463652560885
 10
209.4787561200683
 20
-154.4857331103548
 10
203.3664922270687
 20
-154.4857331103548
 10
203.3664922270687
 20
-154.3457743196602
  0
SPLINE
  5
173
330
70
100
AcDbEntity
  8
Capa 1
 62
     1
370
     9
100
AcDbSpline
210
0.0
220
0.0
230
1.0
 70
     8
 71
     3
 72
     8
 73
     4
 74
     0
 42
0.0000000001
 43
0.0000000001
 40
0.0
 40
0.0
 40
0.0
 40
0.0
 40
1.0
 40
1.0
 40
1.0
 40
1.0
 10
203.3664922270687
 20
-154.3457743196602
 30
0.0
 10
203.636450625855
 20
-152.4294385468917
 30
0.0
 10
204.3815911352976
 20
-150.6315294431728
 30
0.0
 10
205.4830951740689
 20
-149.1027603331881
 30
0.0
  0
LWPOLYLINE
  5
174
330
70
100
AcDbEntity
  8
Capa 1
 62
     1
370
     9
100
AcDbPolyline
 90
        3
 70
     0
 43
0.0
 10
205.4830951740689
 20
-149.1027603331881
 10
212.4052803707552
 20
-149.1027603331881
 10
217.5780152642552
 20
-144.4949439352519
  0
SPLINE
  5
175
330
70
100
AcDbEntity
  8
Capa 1
 62
     1
370
     9
100
AcDbSpline
210
0.0
220
0.0
230
1.0
 70
     8
 71
     3
 72
     8
 73
     4
 74
     0
 42
0.0000000001
 43
0.0000000001
 40
0.0
 40
0.0
 40
0.0
 40
0.0
 40
1.0
 40
1.0
 40
1.0
 40
1.0
 10
217.5780152642552
 20
-144.4949439352519
 30
0.0
 10
219.467862377741
 20
-144.9148087805037
 30
0.0
 10
221.2064774591136
 20
-145.7868481803069
 30
0.0
 10
222.6535559127277
 20
-147.014167587257
 30
0.0
  0
LWPOLYLINE
  5
176
330
70
100
AcDbEntity
  8
Capa 1
 62
     1
370
     9
100
AcDbPolyline
 90
        6
 70
     0
 43
0.0
 10
222.6535559127277
 20
-147.014167587257
 10
222.7507501577559
 20
-147.1110621346609
 10
218.1827589633985
 20
-151.1698209574733
 10
220.1697542145852
 20
-153.3768403724533
 10
224.7269562944567
 20
-149.318081549641
 10
224.8133614249991
 20
-149.4149760970446
  0
SPLINE
  5
177
330
70
100
AcDbEntity
  8
Capa 1
 62
     1
370
     9
100
AcDbSpline
210
0.0
220
0.0
230
1.0
 70
     8
 71
     3
 72
     8
 73
     4
 74
     0
 42
0.0000000001
 43
0.0000000001
 40
0.0
 40
0.0
 40
0.0
 40
0.0
 40
1.0
 40
1.0
 40
1.0
 40
1.0
 10
224.8133614249991
 20
-149.4149760970446
 30
0.0
 10
225.7960929897699
 20
-150.8576051936164
 30
0.0
 10
226.4547822613435
 20
-152.5370991551185
 30
0.0
 10
226.7139976529707
 20
-154.3780725021283
 30
0.0
  0
SPLINE
  5
178
330
70
100
AcDbEntity
  8
Capa 1
 62
     1
370
     9
100
AcDbSpline
210
0.0
220
0.0
230
1.0
 70
     8
 71
     3
 72
     8
 73
     4
 74
     0
 42
0.0000000001
 43
0.0000000001
 40
0.0
 40
0.0
 40
0.0
 40
0.0
 40
1.0
 40
1.0
 40
1.0
 40
1.0
 10
250.6986602288006
 20
-154.3780725021283
 30
0.0
 10
250.7202384577729
 20
-154.4964991711772
 30
0.0
 10
250.7310275722587
 20
-154.6149258402265
 30
0.0
 10
250.7526058012309
 20
-154.7333409824439
 30
0.0
  0
LWPOLYLINE
  5
179
330
70
100
AcDbEntity
  8
Capa 1
 62
     1
370
     9
100
AcDbPolyline
 90
        4
 70
     0
 43
0.0
 10
250.7526058012309
 20
-154.7333409824439
 10
250.7418166867445
 20
-154.7333409824439
 10
241.6598720851141
 20
-162.8293380332552
 10
229.478500757058
 20
-162.8293380332552
  0
SPLINE
  5
17A
330
70
100
AcDbEntity
  8
Capa 1
 62
     1
370
     9
100
AcDbSpline
210
0.0
220
0.0
230
1.0
 70
     8
 71
     3
 72
     8
 73
     4
 74
     0
 42
0.0000000001
 43
0.0000000001
 40
0.0
 40
0.0
 40
0.0
 40
0.0
 40
1.0
 40
1.0
 40
1.0
 40
1.0
 10
229.478500757058
 20
-162.8293380332552
 30
0.0
 10
228.3769967182867
 20
-161.322101044916
 30
0.0
 10
227.6319023161708
 20
-159.5349580020193
 30
0.0
 10
227.3618978100578
 20
-157.5755579859602
 30
0.0
  0
LWPOLYLINE
  5
17B
330
70
100
AcDbEntity
  8
Capa 1
 62
     1
370
     9
100
AcDbPolyline
 90
        8
 70
     0
 43
0.0
 10
227.3618978100578
 20
-157.5755579859602
 10
227.3618978100578
 20
-157.4463652560885
 10
232.7398564154279
 20
-157.4355991952657
 10
232.7398564154279
 20
-157.4463652560885
 10
233.4741617030581
 20
-157.4463652560885
 10
233.4741617030581
 20
-154.4857331103548
 10
227.3618978100578
 20
-154.4857331103548
 10
227.3618978100578
 20
-154.3457743196602
  0
SPLINE
  5
17C
330
70
100
AcDbEntity
  8
Capa 1
 62
     1
370
     9
100
AcDbSpline
210
0.0
220
0.0
230
1.0
 70
     8
 71
     3
 72
     8
 73
     4
 74
     0
 42
0.0000000001
 43
0.0000000001
 40
0.0
 40
0.0
 40
0.0
 40
0.0
 40
1.0
 40
1.0
 40
1.0
 40
1.0
 10
227.3618978100578
 20
-154.3457743196602
 30
0.0
 10
227.6319023161708
 20
-152.4294385468917
 30
0.0
 10
228.3662076038009
 20
-150.6315294431728
 30
0.0
 10
229.478500757058
 20
-149.1027603331881
 30
0.0
  0
LWPOLYLINE
  5
17D
330
70
100
AcDbEntity
  8
Capa 1
 62
     1
370
     9
100
AcDbPolyline
 90
        3
 70
     0
 43
0.0
 10
229.478500757058
 20
-149.1027603331881
 10
236.4006859537444
 20
-149.1027603331881
 10
241.5734669545717
 20
-144.4949439352519
  0
SPLINE
  5
17E
330
70
100
AcDbEntity
  8
Capa 1
 62
     1
370
     9
100
AcDbSpline
210
0.0
220
0.0
230
1.0
 70
     8
 71
     3
 72
     8
 73
     4
 74
     0
 42
0.0000000001
 43
0.0000000001
 40
0.0
 40
0.0
 40
0.0
 40
0.0
 40
1.0
 40
1.0
 40
1.0
 40
1.0
 10
241.5734669545717
 20
-144.4949439352519
 30
0.0
 10
243.4633140680568
 20
-144.9148087805037
 30
0.0
 10
245.2019291494294
 20
-145.7868481803069
 30
0.0
 10
246.6489614957168
 20
-147.014167587257
 30
0.0
  0
LWPOLYLINE
  5
17F
330
70
100
AcDbEntity
  8
Capa 1
 62
     1
370
     9
100
AcDbPolyline
 90
        6
 70
     0
 43
0.0
 10
246.6489614957168
 20
-147.014167587257
 10
246.7353666262592
 20
-147.1110621346609
 10
242.1782106537143
 20
-151.1698209574733
 10
244.1652520122282
 20
-153.3768403724533
 10
248.7224079847725
 20
-149.318081549641
 10
248.8088131153149
 20
-149.4149760970446
  0
SPLINE
  5
180
330
70
100
AcDbEntity
  8
Capa 1
 62
     1
370
     9
100
AcDbSpline
210
0.0
220
0.0
230
1.0
 70
     8
 71
     3
 72
     8
 73
     4
 74
     0
 42
0.0000000001
 43
0.0000000001
 40
0.0
 40
0.0
 40
0.0
 40
0.0
 40
1.0
 40
1.0
 40
1.0
 40
1.0
 10
248.8088131153149
 20
-149.4149760970446
 30
0.0
 10
249.7807555655999
 20
-150.8576051936164
 30
0.0
 10
250.4502339516593
 20
-152.5370991551185
 30
0.0
 10
250.6986602288006
 20
-154.3780725021283
 30
0.0
  0
SPLINE
  5
181
330
70
100
AcDbEntity
  8
Capa 1
 62
     1
370
     9
100
AcDbSpline
210
0.0
220
0.0
230
1.0
 70
     8
 71
     3
 72
     8
 73
     4
 74
     0
 42
0.0000000001
 43
0.0000000001
 40
0.0
 40
0.0
 40
0.0
 40
0.0
 40
1.0
 40
1.0
 40
1.0
 40
1.0
 10
274.6941119191164
 20
-154.3780725021283
 30
0.0
 10
274.7156901480886
 20
-154.4964991711772
 30
0.0
 10
274.7264792625752
 20
-154.6149258402265
 30
0.0
 10
274.7372683770609
 20
-154.7333409824439
 30
0.0
  0
LWPOLYLINE
  5
182
330
70
100
AcDbEntity
  8
Capa 1
 62
     1
370
     9
100
AcDbPolyline
 90
        4
 70
     0
 43
0.0
 10
274.7372683770609
 20
-154.7333409824439
 10
274.7372683770609
 20
-154.7333409824439
 10
265.6553237754299
 20
-162.8293380332552
 10
253.463163332888
 20
-162.8293380332552
  0
SPLINE
  5
183
330
70
100
AcDbEntity
  8
Capa 1
 62
     1
370
     9
100
AcDbSpline
210
0.0
220
0.0
230
1.0
 70
     8
 71
     3
 72
     8
 73
     4
 74
     0
 42
0.0000000001
 43
0.0000000001
 40
0.0
 40
0.0
 40
0.0
 40
0.0
 40
1.0
 40
1.0
 40
1.0
 40
1.0
 10
253.463163332888
 20
-162.8293380332552
 30
0.0
 10
252.3724484086031
 20
-161.322101044916
 30
0.0
 10
251.6273540064872
 20
-159.5349580020193
 30
0.0
 10
251.3573495003736
 20
-157.5755579859602
 30
0.0
  0
LWPOLYLINE
  5
184
330
70
100
AcDbEntity
  8
Capa 1
 62
     1
370
     9
100
AcDbPolyline
 90
        8
 70
     0
 43
0.0
 10
251.3573495003736
 20
-157.5755579859602
 10
251.3573495003736
 20
-157.4463652560885
 10
256.7353081057444
 20
-157.4355991952657
 10
256.7353081057444
 20
-157.4463652560885
 10
257.4696133933739
 20
-157.4463652560885
 10
257.4696133933739
 20
-154.4857331103548
 10
251.3573495003736
 20
-154.4857331103548
 10
251.3573495003736
 20
-154.3457743196602
  0
SPLINE
  5
185
330
70
100
AcDbEntity
  8
Capa 1
 62
     1
370
     9
100
AcDbSpline
210
0.0
220
0.0
230
1.0
 70
     8
 71
     3
 72
     8
 73
     4
 74
     0
 42
0.0000000001
 43
0.0000000001
 40
0.0
 40
0.0
 40
0.0
 40
0.0
 40
1.0
 40
1.0
 40
1.0
 40
1.0
 10
251.3573495003736
 20
-154.3457743196602
 30
0.0
 10
251.6273540064872
 20
-152.4294385468917
 30
0.0
 10
252.3616592941167
 20
-150.6315294431728
 30
0.0
 10
253.4739524473744
 20
-149.1027603331881
 30
0.0
  0
LWPOLYLINE
  5
186
330
70
100
AcDbEntity
  8
Capa 1
 62
     1
370
     9
100
AcDbPolyline
 90
        3
 70
     0
 43
0.0
 10
253.4739524473744
 20
-149.1027603331881
 10
260.3961376440602
 20
-149.1027603331881
 10
265.5689186448874
 20
-144.4949439352519
  0
SPLINE
  5
187
330
70
100
AcDbEntity
  8
Capa 1
 62
     1
370
     9
100
AcDbSpline
210
0.0
220
0.0
230
1.0
 70
     8
 71
     3
 72
     8
 73
     4
 74
     0
 42
0.0000000001
 43
0.0000000001
 40
0.0
 40
0.0
 40
0.0
 40
0.0
 40
1.0
 40
1.0
 40
1.0
 40
1.0
 10
265.5689186448874
 20
-144.4949439352519
 30
0.0
 10
267.4587657583732
 20
-144.9148087805037
 30
0.0
 10
269.1973808397459
 20
-145.7868481803069
 30
0.0
 10
270.6444131860326
 20
-147.014167587257
 30
0.0
  0
LWPOLYLINE
  5
188
330
70
100
AcDbEntity
  8
Capa 1
 62
     1
370
     9
100
AcDbPolyline
 90
        6
 70
     0
 43
0.0
 10
270.6444131860326
 20
-147.014167587257
 10
270.730818316575
 20
-147.1110621346609
 10
266.1736623440307
 20
-151.1698209574733
 10
268.1607037025447
 20
-153.3768403724533
 10
272.7178596750889
 20
-149.318081549641
 10
272.8042648056313
 20
-149.4149760970446
  0
SPLINE
  5
189
330
70
100
AcDbEntity
  8
Capa 1
 62
     1
370
     9
100
AcDbSpline
210
0.0
220
0.0
230
1.0
 70
     8
 71
     3
 72
     8
 73
     4
 74
     0
 42
0.0000000001
 43
0.0000000001
 40
0.0
 40
0.0
 40
0.0
 40
0.0
 40
1.0
 40
1.0
 40
1.0
 40
1.0
 10
272.8042648056313
 20
-149.4149760970446
 30
0.0
 10
273.7761150412624
 20
-150.8576051936164
 30
0.0
 10
274.4456856419757
 20
-152.5370991551185
 30
0.0
 10
274.6941119191164
 20
-154.3780725021283
 30
0.0
  0
SPLINE
  5
18A
330
70
100
AcDbEntity
  8
Capa 1
 62
     1
370
     9
100
AcDbSpline
210
0.0
220
0.0
230
1.0
 70
     8
 71
     3
 72
     8
 73
     4
 74
     0
 42
0.0000000001
 43
0.0000000001
 40
0.0
 40
0.0
 40
0.0
 40
0.0
 40
1.0
 40
1.0
 40
1.0
 40
1.0
 10
226.7139976529707
 20
-173.4876114525306
 30
0.0
 10
226.7247867674565
 20
-173.6060381215795
 30
0.0
 10
226.7463649964287
 20
-173.7244647906291
 30
0.0
 10
226.7571541109145
 20
-173.8428914596781
 30
0.0
  0
LWPOLYLINE
  5
18B
330
70
100
AcDbEntity
  8
Capa 1
 62
     1
370
     9
100
AcDbPolyline
 90
        4
 70
     0
 43
0.0
 10
226.7571541109145
 20
-173.8428914596781
 10
226.7463649964287
 20
-173.8428914596781
 10
217.6644203947976
 20
-181.9388769836578
 10
205.4830951740689
 20
-181.9388769836578
  0
SPLINE
  5
18C
330
70
100
AcDbEntity
  8
Capa 1
 62
     1
370
     9
100
AcDbSpline
210
0.0
220
0.0
230
1.0
 70
     8
 71
     3
 72
     8
 73
     4
 74
     0
 42
0.0000000001
 43
0.0000000001
 40
0.0
 40
0.0
 40
0.0
 40
0.0
 40
1.0
 40
1.0
 40
1.0
 40
1.0
 10
205.4830951740689
 20
-181.9388769836578
 30
0.0
 10
204.3923802497834
 20
-180.4316399953183
 30
0.0
 10
203.636450625855
 20
-178.6444969524219
 30
0.0
 10
203.3664922270687
 20
-176.6850969363625
 30
0.0
  0
LWPOLYLINE
  5
18D
330
70
100
AcDbEntity
  8
Capa 1
 62
     1
370
     9
100
AcDbPolyline
 90
        8
 70
     0
 43
0.0
 10
203.3664922270687
 20
-176.6850969363625
 10
203.3664922270687
 20
-176.5559042064908
 10
208.7444047251121
 20
-176.5451381456683
 10
208.7444047251121
 20
-176.5559042064908
 10
209.4787561200683
 20
-176.5559042064908
 10
209.4787561200683
 20
-173.5952720607574
 10
203.3664922270687
 20
-173.5952720607574
 10
203.3664922270687
 20
-173.4553132700628
  0
SPLINE
  5
18E
330
70
100
AcDbEntity
  8
Capa 1
 62
     1
370
     9
100
AcDbSpline
210
0.0
220
0.0
230
1.0
 70
     8
 71
     3
 72
     8
 73
     4
 74
     0
 42
0.0000000001
 43
0.0000000001
 40
0.0
 40
0.0
 40
0.0
 40
0.0
 40
1.0
 40
1.0
 40
1.0
 40
1.0
 10
203.3664922270687
 20
-173.4553132700628
 30
0.0
 10
203.636450625855
 20
-171.538977497294
 30
0.0
 10
204.3815911352976
 20
-169.7410683935748
 30
0.0
 10
205.4830951740689
 20
-168.2122992835907
 30
0.0
  0
LWPOLYLINE
  5
18F
330
70
100
AcDbEntity
  8
Capa 1
 62
     1
370
     9
100
AcDbPolyline
 90
        3
 70
     0
 43
0.0
 10
205.4830951740689
 20
-168.2122992835907
 10
212.4052803707552
 20
-168.2122992835907
 10
217.5780152642552
 20
-163.6044828856548
  0
SPLINE
  5
190
330
70
100
AcDbEntity
  8
Capa 1
 62
     1
370
     9
100
AcDbSpline
210
0.0
220
0.0
230
1.0
 70
     8
 71
     3
 72
     8
 73
     4
 74
     0
 42
0.0000000001
 43
0.0000000001
 40
0.0
 40
0.0
 40
0.0
 40
0.0
 40
1.0
 40
1.0
 40
1.0
 40
1.0
 10
217.5780152642552
 20
-163.6044828856548
 30
0.0
 10
219.467862377741
 20
-164.0243477309059
 30
0.0
 10
221.2064774591136
 20
-164.8963871307089
 30
0.0
 10
222.6535559127277
 20
-166.1237065376596
 30
0.0
  0
LWPOLYLINE
  5
191
330
70
100
AcDbEntity
  8
Capa 1
 62
     1
370
     9
100
AcDbPolyline
 90
        6
 70
     0
 43
0.0
 10
222.6535559127277
 20
-166.1237065376596
 10
222.7507501577559
 20
-166.2206010850632
 10
218.1827589633985
 20
-170.2793599078759
 10
220.1697542145852
 20
-172.4863793228559
 10
224.7269562944567
 20
-168.4276205000433
 10
224.8133614249991
 20
-168.5245150474472
  0
SPLINE
  5
192
330
70
100
AcDbEntity
  8
Capa 1
 62
     1
370
     9
100
AcDbSpline
210
0.0
220
0.0
230
1.0
 70
     8
 71
     3
 72
     8
 73
     4
 74
     0
 42
0.0000000001
 43
0.0000000001
 40
0.0
 40
0.0
 40
0.0
 40
0.0
 40
1.0
 40
1.0
 40
1.0
 40
1.0
 10
224.8133614249991
 20
-168.5245150474472
 30
0.0
 10
225.7960929897699
 20
-169.967144144019
 30
0.0
 10
226.4547822613435
 20
-171.6466381055211
 30
0.0
 10
226.7139976529707
 20
-173.4876114525306
 30
0.0
  0
SPLINE
  5
193
330
70
100
AcDbEntity
  8
Capa 1
 62
     1
370
     9
100
AcDbSpline
210
0.0
220
0.0
230
1.0
 70
     8
 71
     3
 72
     8
 73
     4
 74
     0
 42
0.0000000001
 43
0.0000000001
 40
0.0
 40
0.0
 40
0.0
 40
0.0
 40
1.0
 40
1.0
 40
1.0
 40
1.0
 10
250.6986602288006
 20
-173.4876114525306
 30
0.0
 10
250.7202384577729
 20
-173.6060381215795
 30
0.0
 10
250.7310275722587
 20
-173.7244647906291
 30
0.0
 10
250.7526058012309
 20
-173.8428914596781
 30
0.0
  0
LWPOLYLINE
  5
194
330
70
100
AcDbEntity
  8
Capa 1
 62
     1
370
     9
100
AcDbPolyline
 90
        4
 70
     0
 43
0.0
 10
250.7526058012309
 20
-173.8428914596781
 10
250.7418166867445
 20
-173.8428914596781
 10
241.6598720851141
 20
-181.9388769836578
 10
229.478500757058
 20
-181.9388769836578
  0
SPLINE
  5
195
330
70
100
AcDbEntity
  8
Capa 1
 62
     1
370
     9
100
AcDbSpline
210
0.0
220
0.0
230
1.0
 70
     8
 71
     3
 72
     8
 73
     4
 74
     0
 42
0.0000000001
 43
0.0000000001
 40
0.0
 40
0.0
 40
0.0
 40
0.0
 40
1.0
 40
1.0
 40
1.0
 40
1.0
 10
229.478500757058
 20
-181.9388769836578
 30
0.0
 10
228.3769967182867
 20
-180.4316399953183
 30
0.0
 10
227.6319023161708
 20
-178.6444969524219
 30
0.0
 10
227.3618978100578
 20
-176.6850969363625
 30
0.0
  0
LWPOLYLINE
  5
196
330
70
100
AcDbEntity
  8
Capa 1
 62
     1
370
     9
100
AcDbPolyline
 90
        8
 70
     0
 43
0.0
 10
227.3618978100578
 20
-176.6850969363625
 10
227.3618978100578
 20
-176.5559042064908
 10
232.7398564154279
 20
-176.5451381456683
 10
232.7398564154279
 20
-176.5559042064908
 10
233.4741617030581
 20
-176.5559042064908
 10
233.4741617030581
 20
-173.5952720607574
 10
227.3618978100578
 20
-173.5952720607574
 10
227.3618978100578
 20
-173.4553132700628
  0
SPLINE
  5
197
330
70
100
AcDbEntity
  8
Capa 1
 62
     1
370
     9
100
AcDbSpline
210
0.0
220
0.0
230
1.0
 70
     8
 71
     3
 72
     8
 73
     4
 74
     0
 42
0.0000000001
 43
0.0000000001
 40
0.0
 40
0.0
 40
0.0
 40
0.0
 40
1.0
 40
1.0
 40
1.0
 40
1.0
 10
227.3618978100578
 20
-173.4553132700628
 30
0.0
 10
227.6319023161708
 20
-171.538977497294
 30
0.0
 10
228.3662076038009
 20
-169.7410683935748
 30
0.0
 10
229.478500757058
 20
-168.2122992835907
 30
0.0
  0
LWPOLYLINE
  5
198
330
70
100
AcDbEntity
  8
Capa 1
 62
     1
370
     9
100
AcDbPolyline
 90
        3
 70
     0
 43
0.0
 10
229.478500757058
 20
-168.2122992835907
 10
236.4006859537444
 20
-168.2122992835907
 10
241.5734669545717
 20
-163.6044828856548
  0
SPLINE
  5
199
330
70
100
AcDbEntity
  8
Capa 1
 62
     1
370
     9
100
AcDbSpline
210
0.0
220
0.0
230
1.0
 70
     8
 71
     3
 72
     8
 73
     4
 74
     0
 42
0.0000000001
 43
0.0000000001
 40
0.0
 40
0.0
 40
0.0
 40
0.0
 40
1.0
 40
1.0
 40
1.0
 40
1.0
 10
241.5734669545717
 20
-163.6044828856548
 30
0.0
 10
243.4633140680568
 20
-164.0243477309059
 30
0.0
 10
245.2019291494294
 20
-164.8963871307089
 30
0.0
 10
246.6489614957168
 20
-166.1237065376596
 30
0.0
  0
LWPOLYLINE
  5
19A
330
70
100
AcDbEntity
  8
Capa 1
 62
     1
370
     9
100
AcDbPolyline
 90
        6
 70
     0
 43
0.0
 10
246.6489614957168
 20
-166.1237065376596
 10
246.7353666262592
 20
-166.2206010850632
 10
242.1782106537143
 20
-170.2793599078759
 10
244.1652520122282
 20
-172.4863793228559
 10
248.7224079847725
 20
-168.4276205000433
 10
248.8088131153149
 20
-168.5245150474472
  0
SPLINE
  5
19B
330
70
100
AcDbEntity
  8
Capa 1
 62
     1
370
     9
100
AcDbSpline
210
0.0
220
0.0
230
1.0
 70
     8
 71
     3
 72
     8
 73
     4
 74
     0
 42
0.0000000001
 43
0.0000000001
 40
0.0
 40
0.0
 40
0.0
 40
0.0
 40
1.0
 40
1.0
 40
1.0
 40
1.0
 10
248.8088131153149
 20
-168.5245150474472
 30
0.0
 10
249.7807555655999
 20
-169.967144144019
 30
0.0
 10
250.4502339516593
 20
-171.6466381055211
 30
0.0
 10
250.6986602288006
 20
-173.4876114525306
 30
0.0
  0
SPLINE
  5
19C
330
70
100
AcDbEntity
  8
Capa 1
 62
     1
370
     9
100
AcDbSpline
210
0.0
220
0.0
230
1.0
 70
     8
 71
     3
 72
     8
 73
     4
 74
     0
 42
0.0000000001
 43
0.0000000001
 40
0.0
 40
0.0
 40
0.0
 40
0.0
 40
1.0
 40
1.0
 40
1.0
 40
1.0
 10
274.6941119191164
 20
-173.4876114525306
 30
0.0
 10
274.7156901480886
 20
-173.6060381215795
 30
0.0
 10
274.7264792625752
 20
-173.7244647906291
 30
0.0
 10
274.7372683770609
 20
-173.8428914596781
 30
0.0
  0
LWPOLYLINE
  5
19D
330
70
100
AcDbEntity
  8
Capa 1
 62
     1
370
     9
100
AcDbPolyline
 90
        4
 70
     0
 43
0.0
 10
274.7372683770609
 20
-173.8428914596781
 10
274.7372683770609
 20
-173.8428914596781
 10
265.6553237754299
 20
-181.9388769836578
 10
253.463163332888
 20
-181.9388769836578
  0
SPLINE
  5
19E
330
70
100
AcDbEntity
  8
Capa 1
 62
     1
370
     9
100
AcDbSpline
210
0.0
220
0.0
230
1.0
 70
     8
 71
     3
 72
     8
 73
     4
 74
     0
 42
0.0000000001
 43
0.0000000001
 40
0.0
 40
0.0
 40
0.0
 40
0.0
 40
1.0
 40
1.0
 40
1.0
 40
1.0
 10
253.463163332888
 20
-181.9388769836578
 30
0.0
 10
252.3724484086031
 20
-180.4316399953183
 30
0.0
 10
251.6273540064872
 20
-178.6444969524219
 30
0.0
 10
251.3573495003736
 20
-176.6850969363625
 30
0.0
  0
LWPOLYLINE
  5
19F
330
70
100
AcDbEntity
  8
Capa 1
 62
     1
370
     9
100
AcDbPolyline
 90
        8
 70
     0
 43
0.0
 10
251.3573495003736
 20
-176.6850969363625
 10
251.3573495003736
 20
-176.5559042064908
 10
256.7353081057444
 20
-176.5451381456683
 10
256.7353081057444
 20
-176.5559042064908
 10
257.4696133933739
 20
-176.5559042064908
 10
257.4696133933739
 20
-173.5952720607574
 10
251.3573495003736
 20
-173.5952720607574
 10
251.3573495003736
 20
-173.4553132700628
  0
SPLINE
  5
1A0
330
70
100
AcDbEntity
  8
Capa 1
 62
     1
370
     9
100
AcDbSpline
210
0.0
220
0.0
230
1.0
 70
     8
 71
     3
 72
     8
 73
     4
 74
     0
 42
0.0000000001
 43
0.0000000001
 40
0.0
 40
0.0
 40
0.0
 40
0.0
 40
1.0
 40
1.0
 40
1.0
 40
1.0
 10
251.3573495003736
 20
-173.4553132700628
 30
0.0
 10
251.6273540064872
 20
-171.538977497294
 30
0.0
 10
252.3616592941167
 20
-169.7410683935748
 30
0.0
 10
253.4739524473744
 20
-168.2122992835907
 30
0.0
  0
LWPOLYLINE
  5
1A1
330
70
100
AcDbEntity
  8
Capa 1
 62
     1
370
     9
100
AcDbPolyline
 90
        3
 70
     0
 43
0.0
 10
253.4739524473744
 20
-168.2122992835907
 10
260.3961376440602
 20
-168.2122992835907
 10
265.5689186448874
 20
-163.6044828856548
  0
SPLINE
  5
1A2
330
70
100
AcDbEntity
  8
Capa 1
 62
     1
370
     9
100
AcDbSpline
210
0.0
220
0.0
230
1.0
 70
     8
 71
     3
 72
     8
 73
     4
 74
     0
 42
0.0000000001
 43
0.0000000001
 40
0.0
 40
0.0
 40
0.0
 40
0.0
 40
1.0
 40
1.0
 40
1.0
 40
1.0
 10
265.5689186448874
 20
-163.6044828856548
 30
0.0
 10
267.4587657583732
 20
-164.0243477309059
 30
0.0
 10
269.1973808397459
 20
-164.8963871307089
 30
0.0
 10
270.6444131860326
 20
-166.1237065376596
 30
0.0
  0
LWPOLYLINE
  5
1A3
330
70
100
AcDbEntity
  8
Capa 1
 62
     1
370
     9
100
AcDbPolyline
 90
        6
 70
     0
 43
0.0
 10
270.6444131860326
 20
-166.1237065376596
 10
270.730818316575
 20
-166.2206010850632
 10
266.1736623440307
 20
-170.2793599078759
 10
268.1607037025447
 20
-172.4863793228559
 10
272.7178596750889
 20
-168.4276205000433
 10
272.8042648056313
 20
-168.5245150474472
  0
SPLINE
  5
1A4
330
70
100
AcDbEntity
  8
Capa 1
 62
     1
370
     9
100
AcDbSpline
210
0.0
220
0.0
230
1.0
 70
     8
 71
     3
 72
     8
 73
     4
 74
     0
 42
0.0000000001
 43
0.0000000001
 40
0.0
 40
0.0
 40
0.0
 40
0.0
 40
1.0
 40
1.0
 40
1.0
 40
1.0
 10
272.8042648056313
 20
-168.5245150474472
 30
0.0
 10
273.7761150412624
 20
-169.967144144019
 30
0.0
 10
274.4456856419757
 20
-171.6466381055211
 30
0.0
 10
274.6941119191164
 20
-173.4876114525306
 30
0.0
  0
SPLINE
  5
1A5
330
70
100
AcDbEntity
  8
Capa 1
 62
     1
370
     9
100
AcDbSpline
210
0.0
220
0.0
230
1.0
 70
     8
 71
     3
 72
     8
 73
     4
 74
     0
 42
0.0000000001
 43
0.0000000001
 40
0.0
 40
0.0
 40
0.0
 40
0.0
 40
1.0
 40
1.0
 40
1.0
 40
1.0
 10
226.7139976529707
 20
-192.5971504029325
 30
0.0
 10
226.7247867674565
 20
-192.7155770719824
 30
0.0
 10
226.7463649964287
 20
-192.834003741031
 30
0.0
 10
226.7571541109145
 20
-192.9524304100807
 30
0.0
  0
LWPOLYLINE
  5
1A6
330
70
100
AcDbEntity
  8
Capa 1
 62
     1
370
     9
100
AcDbPolyline
 90
        4
 70
     0
 43
0.0
 10
226.7571541109145
 20
-192.9524304100807
 10
226.7463649964287
 20
-192.9524304100807
 10
217.6644203947976
 20
-201.0484159340601
 10
205.4830951740689
 20
-201.0484159340601
  0
SPLINE
  5
1A7
330
70
100
AcDbEntity
  8
Capa 1
 62
     1
370
     9
100
AcDbSpline
210
0.0
220
0.0
230
1.0
 70
     8
 71
     3
 72
     8
 73
     4
 74
     0
 42
0.0000000001
 43
0.0000000001
 40
0.0
 40
0.0
 40
0.0
 40
0.0
 40
1.0
 40
1.0
 40
1.0
 40
1.0
 10
205.4830951740689
 20
-201.0484159340601
 30
0.0
 10
204.3923802497834
 20
-199.5411789457206
 30
0.0
 10
203.636450625855
 20
-197.7540359028241
 30
0.0
 10
203.3664922270687
 20
-195.7946358867644
 30
0.0
  0
LWPOLYLINE
  5
1A8
330
70
100
AcDbEntity
  8
Capa 1
 62
     1
370
     9
100
AcDbPolyline
 90
        8
 70
     0
 43
0.0
 10
203.3664922270687
 20
-195.7946358867644
 10
203.3664922270687
 20
-195.665443156893
 10
208.7444047251121
 20
-195.6546770960712
 10
208.7444047251121
 20
-195.665443156893
 10
209.4787561200683
 20
-195.665443156893
 10
209.4787561200683
 20
-192.7048110111596
 10
203.3664922270687
 20
-192.7048110111596
 10
203.3664922270687
 20
-192.5648522204651
  0
SPLINE
  5
1A9
330
70
100
AcDbEntity
  8
Capa 1
 62
     1
370
     9
100
AcDbSpline
210
0.0
220
0.0
230
1.0
 70
     8
 71
     3
 72
     8
 73
     4
 74
     0
 42
0.0000000001
 43
0.0000000001
 40
0.0
 40
0.0
 40
0.0
 40
0.0
 40
1.0
 40
1.0
 40
1.0
 40
1.0
 10
203.3664922270687
 20
-192.5648522204651
 30
0.0
 10
203.636450625855
 20
-190.6485164476963
 30
0.0
 10
204.3815911352976
 20
-188.8506073439777
 30
0.0
 10
205.4830951740689
 20
-187.3218382339926
 30
0.0
  0
LWPOLYLINE
  5
1AA
330
70
100
AcDbEntity
  8
Capa 1
 62
     1
370
     9
100
AcDbPolyline
 90
        3
 70
     0
 43
0.0
 10
205.4830951740689
 20
-187.3218382339926
 10
212.4052803707552
 20
-187.3218382339926
 10
217.5780152642552
 20
-182.7140218360567
  0
SPLINE
  5
1AB
330
70
100
AcDbEntity
  8
Capa 1
 62
     1
370
     9
100
AcDbSpline
210
0.0
220
0.0
230
1.0
 70
     8
 71
     3
 72
     8
 73
     4
 74
     0
 42
0.0000000001
 43
0.0000000001
 40
0.0
 40
0.0
 40
0.0
 40
0.0
 40
1.0
 40
1.0
 40
1.0
 40
1.0
 10
217.5780152642552
 20
-182.7140218360567
 30
0.0
 10
219.467862377741
 20
-183.1338866813082
 30
0.0
 10
221.2064774591136
 20
-184.0059376079433
 30
0.0
 10
222.6535559127277
 20
-185.2224794272393
 30
0.0
  0
LWPOLYLINE
  5
1AC
330
70
100
AcDbEntity
  8
Capa 1
 62
     1
370
     9
100
AcDbPolyline
 90
        6
 70
     0
 43
0.0
 10
222.6535559127277
 20
-185.2224794272393
 10
222.7507501577559
 20
-185.3301400354655
 10
218.1827589633985
 20
-189.3888988582781
 10
220.1697542145852
 20
-191.5959182732582
 10
224.7269562944567
 20
-187.5371594504455
 10
224.8133614249991
 20
-187.6340539978495
  0
SPLINE
  5
1AD
330
70
100
AcDbEntity
  8
Capa 1
 62
     1
370
     9
100
AcDbSpline
210
0.0
220
0.0
230
1.0
 70
     8
 71
     3
 72
     8
 73
     4
 74
     0
 42
0.0000000001
 43
0.0000000001
 40
0.0
 40
0.0
 40
0.0
 40
0.0
 40
1.0
 40
1.0
 40
1.0
 40
1.0
 10
224.8133614249991
 20
-187.6340539978495
 30
0.0
 10
225.7960929897699
 20
-189.0766946212531
 30
0.0
 10
226.4547822613435
 20
-190.756177055923
 30
0.0
 10
226.7139976529707
 20
-192.5971504029325
 30
0.0
  0
SPLINE
  5
1AE
330
70
100
AcDbEntity
  8
Capa 1
 62
     1
370
     9
100
AcDbSpline
210
0.0
220
0.0
230
1.0
 70
     8
 71
     3
 72
     8
 73
     4
 74
     0
 42
0.0000000001
 43
0.0000000001
 40
0.0
 40
0.0
 40
0.0
 40
0.0
 40
1.0
 40
1.0
 40
1.0
 40
1.0
 10
250.6986602288006
 20
-192.5971504029325
 30
0.0
 10
250.7202384577729
 20
-192.7155770719824
 30
0.0
 10
250.7310275722587
 20
-192.834003741031
 30
0.0
 10
250.7526058012309
 20
-192.9524304100807
 30
0.0
  0
LWPOLYLINE
  5
1AF
330
70
100
AcDbEntity
  8
Capa 1
 62
     1
370
     9
100
AcDbPolyline
 90
        4
 70
     0
 43
0.0
 10
250.7526058012309
 20
-192.9524304100807
 10
250.7418166867445
 20
-192.9524304100807
 10
241.6598720851141
 20
-201.0484159340601
 10
229.478500757058
 20
-201.0484159340601
  0
SPLINE
  5
1B0
330
70
100
AcDbEntity
  8
Capa 1
 62
     1
370
     9
100
AcDbSpline
210
0.0
220
0.0
230
1.0
 70
     8
 71
     3
 72
     8
 73
     4
 74
     0
 42
0.0000000001
 43
0.0000000001
 40
0.0
 40
0.0
 40
0.0
 40
0.0
 40
1.0
 40
1.0
 40
1.0
 40
1.0
 10
229.478500757058
 20
-201.0484159340601
 30
0.0
 10
228.3769967182867
 20
-199.5411789457206
 30
0.0
 10
227.6319023161708
 20
-197.7540359028241
 30
0.0
 10
227.3618978100578
 20
-195.7946358867644
 30
0.0
  0
LWPOLYLINE
  5
1B1
330
70
100
AcDbEntity
  8
Capa 1
 62
     1
370
     9
100
AcDbPolyline
 90
        8
 70
     0
 43
0.0
 10
227.3618978100578
 20
-195.7946358867644
 10
227.3618978100578
 20
-195.665443156893
 10
232.7398564154279
 20
-195.6546770960712
 10
232.7398564154279
 20
-195.665443156893
 10
233.4741617030581
 20
-195.665443156893
 10
233.4741617030581
 20
-192.7048110111596
 10
227.3618978100578
 20
-192.7048110111596
 10
227.3618978100578
 20
-192.5648522204651
  0
SPLINE
  5
1B2
330
70
100
AcDbEntity
  8
Capa 1
 62
     1
370
     9
100
AcDbSpline
210
0.0
220
0.0
230
1.0
 70
     8
 71
     3
 72
     8
 73
     4
 74
     0
 42
0.0000000001
 43
0.0000000001
 40
0.0
 40
0.0
 40
0.0
 40
0.0
 40
1.0
 40
1.0
 40
1.0
 40
1.0
 10
227.3618978100578
 20
-192.5648522204651
 30
0.0
 10
227.6319023161708
 20
-190.6485164476963
 30
0.0
 10
228.3662076038009
 20
-188.8506073439777
 30
0.0
 10
229.478500757058
 20
-187.3218382339926
 30
0.0
  0
LWPOLYLINE
  5
1B3
330
70
100
AcDbEntity
  8
Capa 1
 62
     1
370
     9
100
AcDbPolyline
 90
        3
 70
     0
 43
0.0
 10
229.478500757058
 20
-187.3218382339926
 10
236.4006859537444
 20
-187.3218382339926
 10
241.5734669545717
 20
-182.7140218360567
  0
SPLINE
  5
1B4
330
70
100
AcDbEntity
  8
Capa 1
 62
     1
370
     9
100
AcDbSpline
210
0.0
220
0.0
230
1.0
 70
     8
 71
     3
 72
     8
 73
     4
 74
     0
 42
0.0000000001
 43
0.0000000001
 40
0.0
 40
0.0
 40
0.0
 40
0.0
 40
1.0
 40
1.0
 40
1.0
 40
1.0
 10
241.5734669545717
 20
-182.7140218360567
 30
0.0
 10
243.4633140680568
 20
-183.1338866813082
 30
0.0
 10
245.2019291494294
 20
-184.0059376079433
 30
0.0
 10
246.6489614957168
 20
-185.2224794272393
 30
0.0
  0
LWPOLYLINE
  5
1B5
330
70
100
AcDbEntity
  8
Capa 1
 62
     1
370
     9
100
AcDbPolyline
 90
        6
 70
     0
 43
0.0
 10
246.6489614957168
 20
-185.2224794272393
 10
246.7353666262592
 20
-185.3301400354655
 10
242.1782106537143
 20
-189.3888988582781
 10
244.1652520122282
 20
-191.5959182732582
 10
248.7224079847725
 20
-187.5371594504455
 10
248.8088131153149
 20
-187.6340539978495
  0
SPLINE
  5
1B6
330
70
100
AcDbEntity
  8
Capa 1
 62
     1
370
     9
100
AcDbSpline
210
0.0
220
0.0
230
1.0
 70
     8
 71
     3
 72
     8
 73
     4
 74
     0
 42
0.0000000001
 43
0.0000000001
 40
0.0
 40
0.0
 40
0.0
 40
0.0
 40
1.0
 40
1.0
 40
1.0
 40
1.0
 10
248.8088131153149
 20
-187.6340539978495
 30
0.0
 10
249.7807555655999
 20
-189.0766946212531
 30
0.0
 10
250.4502339516593
 20
-190.756177055923
 30
0.0
 10
250.6986602288006
 20
-192.5971504029325
 30
0.0
  0
SPLINE
  5
1B7
330
70
100
AcDbEntity
  8
Capa 1
 62
     1
370
     9
100
AcDbSpline
210
0.0
220
0.0
230
1.0
 70
     8
 71
     3
 72
     8
 73
     4
 74
     0
 42
0.0000000001
 43
0.0000000001
 40
0.0
 40
0.0
 40
0.0
 40
0.0
 40
1.0
 40
1.0
 40
1.0
 40
1.0
 10
274.6941119191164
 20
-192.5971504029325
 30
0.0
 10
274.7156901480886
 20
-192.7155770719824
 30
0.0
 10
274.7264792625752
 20
-192.834003741031
 30
0.0
 10
274.7372683770609
 20
-192.9524304100807
 30
0.0
  0
LWPOLYLINE
  5
1B8
330
70
100
AcDbEntity
  8
Capa 1
 62
     1
370
     9
100
AcDbPolyline
 90
        4
 70
     0
 43
0.0
 10
274.7372683770609
 20
-192.9524304100807
 10
274.7372683770609
 20
-192.9524304100807
 10
265.6553237754299
 20
-201.0484159340601
 10
253.463163332888
 20
-201.0484159340601
  0
SPLINE
  5
1B9
330
70
100
AcDbEntity
  8
Capa 1
 62
     1
370
     9
100
AcDbSpline
210
0.0
220
0.0
230
1.0
 70
     8
 71
     3
 72
     8
 73
     4
 74
     0
 42
0.0000000001
 43
0.0000000001
 40
0.0
 40
0.0
 40
0.0
 40
0.0
 40
1.0
 40
1.0
 40
1.0
 40
1.0
 10
253.463163332888
 20
-201.0484159340601
 30
0.0
 10
252.3724484086031
 20
-199.5411789457206
 30
0.0
 10
251.6273540064872
 20
-197.7540359028241
 30
0.0
 10
251.3573495003736
 20
-195.7946358867644
 30
0.0
  0
LWPOLYLINE
  5
1BA
330
70
100
AcDbEntity
  8
Capa 1
 62
     1
370
     9
100
AcDbPolyline
 90
        8
 70
     0
 43
0.0
 10
251.3573495003736
 20
-195.7946358867644
 10
251.3573495003736
 20
-195.665443156893
 10
256.7353081057444
 20
-195.6546770960712
 10
256.7353081057444
 20
-195.665443156893
 10
257.4696133933739
 20
-195.665443156893
 10
257.4696133933739
 20
-192.7048110111596
 10
251.3573495003736
 20
-192.7048110111596
 10
251.3573495003736
 20
-192.5648522204651
  0
SPLINE
  5
1BB
330
70
100
AcDbEntity
  8
Capa 1
 62
     1
370
     9
100
AcDbSpline
210
0.0
220
0.0
230
1.0
 70
     8
 71
     3
 72
     8
 73
     4
 74
     0
 42
0.0000000001
 43
0.0000000001
 40
0.0
 40
0.0
 40
0.0
 40
0.0
 40
1.0
 40
1.0
 40
1.0
 40
1.0
 10
251.3573495003736
 20
-192.5648522204651
 30
0.0
 10
251.6273540064872
 20
-190.6485164476963
 30
0.0
 10
252.3616592941167
 20
-188.8506073439777
 30
0.0
 10
253.4739524473744
 20
-187.3218382339926
 30
0.0
  0
LWPOLYLINE
  5
1BC
330
70
100
AcDbEntity
  8
Capa 1
 62
     1
370
     9
100
AcDbPolyline
 90
        3
 70
     0
 43
0.0
 10
253.4739524473744
 20
-187.3218382339926
 10
260.3961376440602
 20
-187.3218382339926
 10
265.5689186448874
 20
-182.7140218360567
  0
SPLINE
  5
1BD
330
70
100
AcDbEntity
  8
Capa 1
 62
     1
370
     9
100
AcDbSpline
210
0.0
220
0.0
230
1.0
 70
     8
 71
     3
 72
     8
 73
     4
 74
     0
 42
0.0000000001
 43
0.0000000001
 40
0.0
 40
0.0
 40
0.0
 40
0.0
 40
1.0
 40
1.0
 40
1.0
 40
1.0
 10
265.5689186448874
 20
-182.7140218360567
 30
0.0
 10
267.4587657583732
 20
-183.1338866813082
 30
0.0
 10
269.1973808397459
 20
-184.0059376079433
 30
0.0
 10
270.6444131860326
 20
-185.2224794272393
 30
0.0
  0
LWPOLYLINE
  5
1BE
330
70
100
AcDbEntity
  8
Capa 1
 62
     1
370
     9
100
AcDbPolyline
 90
        6
 70
     0
 43
0.0
 10
270.6444131860326
 20
-185.2224794272393
 10
270.730818316575
 20
-185.3301400354655
 10
266.1736623440307
 20
-189.3888988582781
 10
268.1607037025447
 20
-191.5959182732582
 10
272.7178596750889
 20
-187.5371594504455
 10
272.8042648056313
 20
-187.6340539978495
  0
SPLINE
  5
1BF
330
70
100
AcDbEntity
  8
Capa 1
 62
     1
370
     9
100
AcDbSpline
210
0.0
220
0.0
230
1.0
 70
     8
 71
     3
 72
     8
 73
     4
 74
     0
 42
0.0000000001
 43
0.0000000001
 40
0.0
 40
0.0
 40
0.0
 40
0.0
 40
1.0
 40
1.0
 40
1.0
 40
1.0
 10
272.8042648056313
 20
-187.6340539978495
 30
0.0
 10
273.7761150412624
 20
-189.0766946212531
 30
0.0
 10
274.4456856419757
 20
-190.756177055923
 30
0.0
 10
274.6941119191164
 20
-192.5971504029325
 30
0.0
  0
SPLINE
  5
1C0
330
70
100
AcDbEntity
  8
Capa 1
 62
     1
370
     9
100
AcDbSpline
210
0.0
220
0.0
230
1.0
 70
     8
 71
     3
 72
     8
 73
     4
 74
     0
 42
0.0000000001
 43
0.0000000001
 40
0.0
 40
0.0
 40
0.0
 40
0.0
 40
1.0
 40
1.0
 40
1.0
 40
1.0
 10
226.7139976529707
 20
-211.7067008801673
 30
0.0
 10
226.7247867674565
 20
-211.8251275492165
 30
0.0
 10
226.7463649964287
 20
-211.9435542182655
 30
0.0
 10
226.7571541109145
 20
-212.0619578336511
 30
0.0
  0
LWPOLYLINE
  5
1C1
330
70
100
AcDbEntity
  8
Capa 1
 62
     1
370
     9
100
AcDbPolyline
 90
        4
 70
     0
 43
0.0
 10
226.7571541109145
 20
-212.0619578336511
 10
226.7463649964287
 20
-212.0619578336511
 10
217.6644203947976
 20
-220.1579433576311
 10
205.4830951740689
 20
-220.1579433576311
  0
SPLINE
  5
1C2
330
70
100
AcDbEntity
  8
Capa 1
 62
     1
370
     9
100
AcDbSpline
210
0.0
220
0.0
230
1.0
 70
     8
 71
     3
 72
     8
 73
     4
 74
     0
 42
0.0000000001
 43
0.0000000001
 40
0.0
 40
0.0
 40
0.0
 40
0.0
 40
1.0
 40
1.0
 40
1.0
 40
1.0
 10
205.4830951740689
 20
-220.1579433576311
 30
0.0
 10
204.3923802497834
 20
-218.6507178961232
 30
0.0
 10
203.636450625855
 20
-216.8635748532262
 30
0.0
 10
203.3664922270687
 20
-214.9041748371677
 30
0.0
  0
LWPOLYLINE
  5
1C3
330
70
100
AcDbEntity
  8
Capa 1
 62
     1
370
     9
100
AcDbPolyline
 90
        8
 70
     0
 43
0.0
 10
203.3664922270687
 20
-214.9041748371677
 10
203.3664922270687
 20
-214.774982107296
 10
208.7444047251121
 20
-214.7642160464731
 10
208.7444047251121
 20
-214.774982107296
 10
209.4787561200683
 20
-214.774982107296
 10
209.4787561200683
 20
-211.8143614883934
 10
203.3664922270687
 20
-211.8143614883934
 10
203.3664922270687
 20
-211.6744026976986
  0
SPLINE
  5
1C4
330
70
100
AcDbEntity
  8
Capa 1
 62
     1
370
     9
100
AcDbSpline
210
0.0
220
0.0
230
1.0
 70
     8
 71
     3
 72
     8
 73
     4
 74
     0
 42
0.0000000001
 43
0.0000000001
 40
0.0
 40
0.0
 40
0.0
 40
0.0
 40
1.0
 40
1.0
 40
1.0
 40
1.0
 10
203.3664922270687
 20
-211.6744026976986
 30
0.0
 10
203.636450625855
 20
-209.7473008641079
 30
0.0
 10
204.3815911352976
 20
-207.9601347675478
 30
0.0
 10
205.4830951740689
 20
-206.4313771843949
 30
0.0
  0
LWPOLYLINE
  5
1C5
330
70
100
AcDbEntity
  8
Capa 1
 62
     1
370
     9
100
AcDbPolyline
 90
        3
 70
     0
 43
0.0
 10
205.4830951740689
 20
-206.4313771843949
 10
212.4052803707552
 20
-206.4313771843949
 10
217.5780152642552
 20
-201.823560786459
  0
SPLINE
  5
1C6
330
70
100
AcDbEntity
  8
Capa 1
 62
     1
370
     9
100
AcDbSpline
210
0.0
220
0.0
230
1.0
 70
     8
 71
     3
 72
     8
 73
     4
 74
     0
 42
0.0000000001
 43
0.0000000001
 40
0.0
 40
0.0
 40
0.0
 40
0.0
 40
1.0
 40
1.0
 40
1.0
 40
1.0
 10
217.5780152642552
 20
-201.823560786459
 30
0.0
 10
219.467862377741
 20
-202.2434371585426
 30
0.0
 10
221.2064774591136
 20
-203.1154765583456
 30
0.0
 10
222.6535559127277
 20
-204.3320183776416
 30
0.0
  0
LWPOLYLINE
  5
1C7
330
70
100
AcDbEntity
  8
Capa 1
 62
     1
370
     9
100
AcDbPolyline
 90
        6
 70
     0
 43
0.0
 10
222.6535559127277
 20
-204.3320183776416
 10
222.7507501577559
 20
-204.4396789858684
 10
218.1827589633985
 20
-208.4984378086804
 10
220.1697542145852
 20
-210.7054572236602
 10
224.7269562944567
 20
-206.6466984008478
 10
224.8133614249991
 20
-206.7435929482521
  0
SPLINE
  5
1C8
330
70
100
AcDbEntity
  8
Capa 1
 62
     1
370
     9
100
AcDbSpline
210
0.0
220
0.0
230
1.0
 70
     8
 71
     3
 72
     8
 73
     4
 74
     0
 42
0.0000000001
 43
0.0000000001
 40
0.0
 40
0.0
 40
0.0
 40
0.0
 40
1.0
 40
1.0
 40
1.0
 40
1.0
 10
224.8133614249991
 20
-206.7435929482521
 30
0.0
 10
225.7960929897699
 20
-208.1862220448236
 30
0.0
 10
226.4547822613435
 20
-209.8657275331575
 30
0.0
 10
226.7139976529707
 20
-211.7067008801673
 30
0.0
  0
SPLINE
  5
1C9
330
70
100
AcDbEntity
  8
Capa 1
 62
     1
370
     9
100
AcDbSpline
210
0.0
220
0.0
230
1.0
 70
     8
 71
     3
 72
     8
 73
     4
 74
     0
 42
0.0000000001
 43
0.0000000001
 40
0.0
 40
0.0
 40
0.0
 40
0.0
 40
1.0
 40
1.0
 40
1.0
 40
1.0
 10
250.6986602288006
 20
-211.7067008801673
 30
0.0
 10
250.7202384577729
 20
-211.8251275492165
 30
0.0
 10
250.7310275722587
 20
-211.9435542182655
 30
0.0
 10
250.7526058012309
 20
-212.0619578336511
 30
0.0
  0
LWPOLYLINE
  5
1CA
330
70
100
AcDbEntity
  8
Capa 1
 62
     1
370
     9
100
AcDbPolyline
 90
        4
 70
     0
 43
0.0
 10
250.7526058012309
 20
-212.0619578336511
 10
250.7418166867445
 20
-212.0619578336511
 10
241.6598720851141
 20
-220.1579433576311
 10
229.478500757058
 20
-220.1579433576311
  0
SPLINE
  5
1CB
330
70
100
AcDbEntity
  8
Capa 1
 62
     1
370
     9
100
AcDbSpline
210
0.0
220
0.0
230
1.0
 70
     8
 71
     3
 72
     8
 73
     4
 74
     0
 42
0.0000000001
 43
0.0000000001
 40
0.0
 40
0.0
 40
0.0
 40
0.0
 40
1.0
 40
1.0
 40
1.0
 40
1.0
 10
229.478500757058
 20
-220.1579433576311
 30
0.0
 10
228.3769967182867
 20
-218.6507178961232
 30
0.0
 10
227.6319023161708
 20
-216.8635748532262
 30
0.0
 10
227.3618978100578
 20
-214.9041748371677
 30
0.0
  0
LWPOLYLINE
  5
1CC
330
70
100
AcDbEntity
  8
Capa 1
 62
     1
370
     9
100
AcDbPolyline
 90
        8
 70
     0
 43
0.0
 10
227.3618978100578
 20
-214.9041748371677
 10
227.3618978100578
 20
-214.774982107296
 10
232.7398564154279
 20
-214.7642160464731
 10
232.7398564154279
 20
-214.774982107296
 10
233.4741617030581
 20
-214.774982107296
 10
233.4741617030581
 20
-211.8143614883934
 10
227.3618978100578
 20
-211.8143614883934
 10
227.3618978100578
 20
-211.6744026976986
  0
SPLINE
  5
1CD
330
70
100
AcDbEntity
  8
Capa 1
 62
     1
370
     9
100
AcDbSpline
210
0.0
220
0.0
230
1.0
 70
     8
 71
     3
 72
     8
 73
     4
 74
     0
 42
0.0000000001
 43
0.0000000001
 40
0.0
 40
0.0
 40
0.0
 40
0.0
 40
1.0
 40
1.0
 40
1.0
 40
1.0
 10
227.3618978100578
 20
-211.6744026976986
 30
0.0
 10
227.6319023161708
 20
-209.7473008641079
 30
0.0
 10
228.3662076038009
 20
-207.9601347675478
 30
0.0
 10
229.478500757058
 20
-206.4313771843949
 30
0.0
  0
LWPOLYLINE
  5
1CE
330
70
100
AcDbEntity
  8
Capa 1
 62
     1
370
     9
100
AcDbPolyline
 90
        3
 70
     0
 43
0.0
 10
229.478500757058
 20
-206.4313771843949
 10
236.4006859537444
 20
-206.4313771843949
 10
241.5734669545717
 20
-201.823560786459
  0
SPLINE
  5
1CF
330
70
100
AcDbEntity
  8
Capa 1
 62
     1
370
     9
100
AcDbSpline
210
0.0
220
0.0
230
1.0
 70
     8
 71
     3
 72
     8
 73
     4
 74
     0
 42
0.0000000001
 43
0.0000000001
 40
0.0
 40
0.0
 40
0.0
 40
0.0
 40
1.0
 40
1.0
 40
1.0
 40
1.0
 10
241.5734669545717
 20
-201.823560786459
 30
0.0
 10
243.4633140680568
 20
-202.2434371585426
 30
0.0
 10
245.2019291494294
 20
-203.1154765583456
 30
0.0
 10
246.6489614957168
 20
-204.3320183776416
 30
0.0
  0
LWPOLYLINE
  5
1D0
330
70
100
AcDbEntity
  8
Capa 1
 62
     1
370
     9
100
AcDbPolyline
 90
        6
 70
     0
 43
0.0
 10
246.6489614957168
 20
-204.3320183776416
 10
246.7353666262592
 20
-204.4396789858684
 10
242.1782106537143
 20
-208.4984378086804
 10
244.1652520122282
 20
-210.7054572236602
 10
248.7224079847725
 20
-206.6466984008478
 10
248.8088131153149
 20
-206.7435929482521
  0
SPLINE
  5
1D1
330
70
100
AcDbEntity
  8
Capa 1
 62
     1
370
     9
100
AcDbSpline
210
0.0
220
0.0
230
1.0
 70
     8
 71
     3
 72
     8
 73
     4
 74
     0
 42
0.0000000001
 43
0.0000000001
 40
0.0
 40
0.0
 40
0.0
 40
0.0
 40
1.0
 40
1.0
 40
1.0
 40
1.0
 10
248.8088131153149
 20
-206.7435929482521
 30
0.0
 10
249.7807555655999
 20
-208.1862220448236
 30
0.0
 10
250.4502339516593
 20
-209.8657275331575
 30
0.0
 10
250.6986602288006
 20
-211.7067008801673
 30
0.0
  0
SPLINE
  5
1D2
330
70
100
AcDbEntity
  8
Capa 1
 62
     1
370
     9
100
AcDbSpline
210
0.0
220
0.0
230
1.0
 70
     8
 71
     3
 72
     8
 73
     4
 74
     0
 42
0.0000000001
 43
0.0000000001
 40
0.0
 40
0.0
 40
0.0
 40
0.0
 40
1.0
 40
1.0
 40
1.0
 40
1.0
 10
274.6941119191164
 20
-211.7067008801673
 30
0.0
 10
274.7156901480886
 20
-211.8251275492165
 30
0.0
 10
274.7264792625752
 20
-211.9435542182655
 30
0.0
 10
274.7372683770609
 20
-212.0619578336511
 30
0.0
  0
LWPOLYLINE
  5
1D3
330
70
100
AcDbEntity
  8
Capa 1
 62
     1
370
     9
100
AcDbPolyline
 90
        4
 70
     0
 43
0.0
 10
274.7372683770609
 20
-212.0619578336511
 10
274.7372683770609
 20
-212.0619578336511
 10
265.6553237754299
 20
-220.1579433576311
 10
253.463163332888
 20
-220.1579433576311
  0
SPLINE
  5
1D4
330
70
100
AcDbEntity
  8
Capa 1
 62
     1
370
     9
100
AcDbSpline
210
0.0
220
0.0
230
1.0
 70
     8
 71
     3
 72
     8
 73
     4
 74
     0
 42
0.0000000001
 43
0.0000000001
 40
0.0
 40
0.0
 40
0.0
 40
0.0
 40
1.0
 40
1.0
 40
1.0
 40
1.0
 10
253.463163332888
 20
-220.1579433576311
 30
0.0
 10
252.3724484086031
 20
-218.6507178961232
 30
0.0
 10
251.6273540064872
 20
-216.8635748532262
 30
0.0
 10
251.3573495003736
 20
-214.9041748371677
 30
0.0
  0
LWPOLYLINE
  5
1D5
330
70
100
AcDbEntity
  8
Capa 1
 62
     1
370
     9
100
AcDbPolyline
 90
        8
 70
     0
 43
0.0
 10
251.3573495003736
 20
-214.9041748371677
 10
251.3573495003736
 20
-214.774982107296
 10
256.7353081057444
 20
-214.7642160464731
 10
256.7353081057444
 20
-214.774982107296
 10
257.4696133933739
 20
-214.774982107296
 10
257.4696133933739
 20
-211.8143614883934
 10
251.3573495003736
 20
-211.8143614883934
 10
251.3573495003736
 20
-211.6744026976986
  0
SPLINE
  5
1D6
330
70
100
AcDbEntity
  8
Capa 1
 62
     1
370
     9
100
AcDbSpline
210
0.0
220
0.0
230
1.0
 70
     8
 71
     3
 72
     8
 73
     4
 74
     0
 42
0.0000000001
 43
0.0000000001
 40
0.0
 40
0.0
 40
0.0
 40
0.0
 40
1.0
 40
1.0
 40
1.0
 40
1.0
 10
251.3573495003736
 20
-211.6744026976986
 30
0.0
 10
251.6273540064872
 20
-209.7473008641079
 30
0.0
 10
252.3616592941167
 20
-207.9601347675478
 30
0.0
 10
253.4739524473744
 20
-206.4313771843949
 30
0.0
  0
LWPOLYLINE
  5
1D7
330
70
100
AcDbEntity
  8
Capa 1
 62
     1
370
     9
100
AcDbPolyline
 90
        3
 70
     0
 43
0.0
 10
253.4739524473744
 20
-206.4313771843949
 10
260.3961376440602
 20
-206.4313771843949
 10
265.5689186448874
 20
-201.823560786459
  0
SPLINE
  5
1D8
330
70
100
AcDbEntity
  8
Capa 1
 62
     1
370
     9
100
AcDbSpline
210
0.0
220
0.0
230
1.0
 70
     8
 71
     3
 72
     8
 73
     4
 74
     0
 42
0.0000000001
 43
0.0000000001
 40
0.0
 40
0.0
 40
0.0
 40
0.0
 40
1.0
 40
1.0
 40
1.0
 40
1.0
 10
265.5689186448874
 20
-201.823560786459
 30
0.0
 10
267.4587657583732
 20
-202.2434371585426
 30
0.0
 10
269.1973808397459
 20
-203.1154765583456
 30
0.0
 10
270.6444131860326
 20
-204.3320183776416
 30
0.0
  0
LWPOLYLINE
  5
1D9
330
70
100
AcDbEntity
  8
Capa 1
 62
     1
370
     9
100
AcDbPolyline
 90
        6
 70
     0
 43
0.0
 10
270.6444131860326
 20
-204.3320183776416
 10
270.730818316575
 20
-204.4396789858684
 10
266.1736623440307
 20
-208.4984378086804
 10
268.1607037025447
 20
-210.7054572236602
 10
272.7178596750889
 20
-206.6466984008478
 10
272.8042648056313
 20
-206.7435929482521
  0
SPLINE
  5
1DA
330
70
100
AcDbEntity
  8
Capa 1
 62
     1
370
     9
100
AcDbSpline
210
0.0
220
0.0
230
1.0
 70
     8
 71
     3
 72
     8
 73
     4
 74
     0
 42
0.0000000001
 43
0.0000000001
 40
0.0
 40
0.0
 40
0.0
 40
0.0
 40
1.0
 40
1.0
 40
1.0
 40
1.0
 10
272.8042648056313
 20
-206.7435929482521
 30
0.0
 10
273.7761150412624
 20
-208.1862220448236
 30
0.0
 10
274.4456856419757
 20
-209.8657275331575
 30
0.0
 10
274.6941119191164
 20
-211.7067008801673
 30
0.0
  0
LINE
  5
1DB
330
70
100
AcDbEntity
  8
Capa 1
 62
     1
370
     9
100
AcDbLine
 10
-272.6978590750691
 20
-173.5952720607574
 30
0.0
 11
-272.6978590750691
 21
-173.5952720607574
 31
0.0
  0
LINE
  5
1DC
330
70
100
AcDbEntity
  8
Capa 1
 62
     1
370
     9
100
AcDbLine
 10
-421.8108445523527
 20
-228.060162840466
 30
0.0
 11
-482.998137481451
 21
-228.0924610229344
 31
0.0
  0
LWPOLYLINE
  5
1DD
330
70
100
AcDbEntity
  8
Capa 1
 62
     1
370
     9
100
AcDbPolyline
 90
       44
 70
     0
 43
0.0
 10
80.64635500769943
 20
-227.7156488941413
 10
87.33094914905729
 20
-227.7156488941413
 10
94.73905946355889
 20
-227.7048828333185
 10
102.7627486990159
 20
-227.7048828333185
 10
111.2831982741022
 20
-227.6941167724957
 10
120.1923787219746
 20
-227.6941167724957
 10
129.3823527904469
 20
-227.6833507116729
 10
138.7450910126774
 20
-227.6725846508501
 10
141.8336364099626
 20
-227.6725846508501
 10
141.974033220262
 20
-227.543391920979
 10
141.9631979984489
 20
-222.5910500498863
 10
144.9329709217336
 20
-222.5910500498863
 10
144.9329709217336
 20
-227.5326258601562
 10
145.0733216247063
 20
-227.6725846508501
 10
148.1618670219915
 20
-227.6725846508501
 10
157.524605244222
 20
-227.6618185900286
 10
166.7145793126938
 20
-227.6618185900286
 10
175.6238058678941
 20
-227.6510525292057
 10
184.1549984501389
 20
-227.6510525292057
 10
192.1786876855966
 20
-227.6402864683829
 10
199.576008885612
 20
-227.6402864683829
 10
206.2606491342969
 20
-227.6295204075601
 10
202.9129344527112
 20
-221.8697470284316
 10
199.2088562417969
 20
-215.4747760607681
 10
195.1916170668252
 20
-208.5522681127938
 10
190.9259977220394
 20
-201.1991407855774
 10
186.4659898871961
 20
-193.5014879852042
 10
181.8656313493806
 20
-185.566993373564
 10
177.1788676810222
 20
-177.4925399712299
 10
175.6345949823799
 20
-174.8225914677077
 10
175.6238058678941
 20
-174.8225914677077
 10
175.4402064923229
 20
-174.7795272244171
 10
171.1421736967517
 20
-177.2556866331314
 10
169.6627278996796
 20
-174.693398737836
 10
173.9607145879234
 20
-172.2064617414668
 10
174.0039171531952
 20
-172.0342047683045
 10
172.4596905618789
 20
-169.3642562647824
 10
167.7728807861945
 20
-161.2898028624479
 10
163.1725222483784
 20
-153.355308250808
 10
158.7125144135356
 20
-145.6576554504349
 10
154.4468950687499
 20
-138.3045281232184
 10
150.4296558937775
 20
-131.3820317020757
 10
146.7255776828639
 20
-124.9870607344115
 10
143.3779091086049
 20
-119.2165328212926
  0
LWPOLYLINE
  5
1DE
330
70
100
AcDbEntity
  8
Capa 1
 62
     1
370
     9
100
AcDbPolyline
 90
        6
 70
     0
 43
0.0
 10
112.8274248654178
 20
-172.0772690115951
 10
112.870627430689
 20
-172.2602920455799
 10
117.1794493407459
 20
-174.7256969203035
 10
115.689168321861
 20
-177.2879848155991
 10
111.3911816336162
 20
-174.8225914677077
 10
111.2075822580456
 20
-174.8656557109983
  0
SPLINE
  5
1DF
330
70
100
AcDbEntity
  8
Capa 1
 62
     1
370
     9
100
AcDbSpline
210
0.0
220
0.0
230
1.0
 70
     9
 71
     3
 72
    17
 73
    13
 74
     0
 42
0.0000000001
 43
0.0000000001
 40
0.0
 40
0.0
 40
0.0
 40
0.0
 40
1.0
 40
1.0
 40
1.0
 40
2.0
 40
2.0
 40
2.0
 40
3.0
 40
3.0
 40
3.0
 40
4.0
 40
4.0
 40
4.0
 40
4.0
 10
158.7233035280215
 20
-202.4910450306322
 30
0.0
 10
150.2892590834782
 20
-210.9100123792913
 30
0.0
 10
136.6176989511908
 20
-210.9100123792913
 30
0.0
 10
128.1836545066475
 20
-202.4910450306322
 30
0.0
 10
119.7496100621036
 20
-194.0828552696274
 30
0.0
 10
119.7496100621036
 20
-180.4531721169633
 30
0.0
 10
128.1836545066475
 20
-172.0449708291273
 30
0.0
 10
136.6176989511908
 20
-163.6367810681222
 30
0.0
 10
150.2892590834782
 20
-163.6367810681222
 30
0.0
 10
158.7233035280215
 20
-172.0449708291273
 30
0.0
 10
167.1573479725654
 20
-180.4531721169633
 30
0.0
 10
167.1573479725654
 20
-194.0828552696274
 30
0.0
 10
158.7233035280215
 20
-202.4910450306322
 30
0.0
  0
SPLINE
  5
1E0
330
70
100
AcDbEntity
  8
Capa 1
 62
     1
370
     9
100
AcDbSpline
210
0.0
220
0.0
230
1.0
 70
     9
 71
     3
 72
    17
 73
    13
 74
     0
 42
0.0000000001
 43
0.0000000001
 40
0.0
 40
0.0
 40
0.0
 40
0.0
 40
1.0
 40
1.0
 40
1.0
 40
2.0
 40
2.0
 40
2.0
 40
3.0
 40
3.0
 40
3.0
 40
4.0
 40
4.0
 40
4.0
 40
4.0
 10
33.75530355926356
 20
-202.4910450306322
 30
0.0
 10
25.32125911472027
 20
-210.9100123792913
 30
0.0
 10
11.64969898243287
 20
-210.9100123792913
 30
0.0
 10
3.215654537889585
 20
-202.4910450306322
 30
0.0
 10
-5.218389906654346
 20
-194.0828552696274
 30
0.0
 10
-5.218389906654346
 20
-180.4531721169633
 30
0.0
 10
3.215654537889585
 20
-172.0449708291273
 30
0.0
 10
11.64969898243287
 20
-163.6367810681222
 30
0.0
 10
25.32125911472027
 20
-163.6367810681222
 30
0.0
 10
33.75530355926356
 20
-172.0449708291273
 30
0.0
 10
42.18934800380749
 20
-180.4531721169633
 30
0.0
 10
42.18934800380749
 20
-194.0828552696274
 30
0.0
 10
33.75530355926356
 20
-202.4910450306322
 30
0.0
  0
SPLINE
  5
1E1
330
70
100
AcDbEntity
  8
Capa 1
 62
     1
370
     9
100
AcDbSpline
210
0.0
220
0.0
230
1.0
 70
     9
 71
     3
 72
    17
 73
    13
 74
     0
 42
0.0000000001
 43
0.0000000001
 40
0.0
 40
0.0
 40
0.0
 40
0.0
 40
1.0
 40
1.0
 40
1.0
 40
2.0
 40
2.0
 40
2.0
 40
3.0
 40
3.0
 40
3.0
 40
4.0
 40
4.0
 40
4.0
 40
4.0
 10
-91.21269640949469
 20
-202.4910450306322
 30
0.0
 10
-99.646740854038
 20
-210.9100123792913
 30
0.0
 10
-113.3183009863254
 20
-210.9100123792913
 30
0.0
 10
-121.7523454308686
 20
-202.4910450306322
 30
0.0
 10
-130.1863898754126
 20
-194.0828552696274
 30
0.0
 10
-130.1863898754126
 20
-180.4531721169633
 30
0.0
 10
-121.7523454308686
 20
-172.0449708291273
 30
0.0
 10
-113.3183009863254
 20
-163.6367810681222
 30
0.0
 10
-99.646740854038
 20
-163.6367810681222
 30
0.0
 10
-91.21269640949469
 20
-172.0449708291273
 30
0.0
 10
-82.77865196495076
 20
-180.4531721169633
 30
0.0
 10
-82.77865196495076
 20
-194.0828552696274
 30
0.0
 10
-91.21269640949469
 20
-202.4910450306322
 30
0.0
  0
LWPOLYLINE
  5
1E2
330
70
100
AcDbEntity
  8
Capa 1
 62
     1
370
     9
100
AcDbPolyline
 90
        4
 70
     1
 43
0.0
 10
163.0256666259105
 20
-67.81799998304542
 10
124.9256666354349
 20
-67.81799998304542
 10
124.9256666354349
 20
-29.71799999257042
 10
163.0256666259105
 20
-29.71799999257042
  0
LWPOLYLINE
  5
1E3
330
70
100
AcDbEntity
  8
Capa 1
 62
     1
370
     9
100
AcDbPolyline
 90
        4
 70
     1
 43
0.0
 10
40.34366665658096
 20
-67.81799998304542
 10
2.243666666105313
 20
-67.81799998304542
 10
2.243666666105313
 20
-29.71799999257042
 10
40.34366665658096
 20
-29.71799999257042
  0
LWPOLYLINE
  5
1E4
330
70
100
AcDbEntity
  8
Capa 1
 62
     1
370
     9
100
AcDbPolyline
 90
        4
 70
     1
 43
0.0
 10
-86.14833331179619
 20
-67.81799998304542
 10
-124.2483333022718
 20
-67.81799998304542
 10
-124.2483333022718
 20
-29.71799999257042
 10
-86.14833331179619
 20
-29.71799999257042
  0
LWPOLYLINE
  5
1E5
330
70
100
AcDbEntity
  8
Capa 1
 62
     1
370
     9
100
AcDbPolyline
 90
       10
 70
     1
 43
0.0
 10
-169.9683332908413
 20
-58.13061022991758
 10
-162.1944648923087
 20
-73.88218806299203
 10
-144.8115667050521
 20
-76.40807102159766
 10
-157.3899499979465
 20
-88.66896445748288
 10
-154.4205964937758
 20
-105.9816238105796
 10
-169.9683332908413
 20
-97.80769485332308
 10
-185.5160700879068
 20
-105.9816238105796
 10
-182.5467165837361
 20
-88.66896445748288
 10
-195.1250998766305
 20
-76.40807102159766
 10
-177.7422016893736
 20
-73.88218806299203
  0
LWPOLYLINE
  5
1E6
330
70
100
AcDbEntity
  8
Capa 1
 62
     1
370
     9
100
AcDbPolyline
 90
       10
 70
     1
 43
0.0
 10
-293.4123332599804
 20
-58.13061022991758
 10
-285.6384648614477
 20
-73.88218806299203
 10
-268.2555666741911
 20
-76.40807102159766
 10
-280.8339499670856
 20
-88.66896445748288
 10
-277.8645964629149
 20
-105.9816238105796
 10
-293.4123332599804
 20
-97.80769485332308
 10
-308.9600700570459
 20
-105.9816238105796
 10
-305.9907165528751
 20
-88.66896445748288
 10
-318.5690998457696
 20
-76.40807102159766
 10
-301.1862016585133
 20
-73.88218806299203
  0
LWPOLYLINE
  5
1E7
330
70
100
AcDbEntity
  8
Capa 1
 62
     1
370
     9
100
AcDbPolyline
 90
       10
 70
     1
 43
0.0
 10
-419.9043332283571
 20
-58.13061022991758
 10
-412.1304648298249
 20
-73.88218806299203
 10
-394.7475666425674
 20
-76.40807102159766
 10
-407.3259499354639
 20
-88.66896445748288
 10
-404.3565964312922
 20
-105.9816238105796
 10
-419.9043332283571
 20
-97.80769485332308
 10
-435.4520700254223
 20
-105.9816238105796
 10
-432.4827165212503
 20
-88.66896445748288
 10
-445.061099814147
 20
-76.40807102159766
 10
-427.6782016268898
 20
-73.88218806299203
  0
LWPOLYLINE
  5
1E8
330
70
100
AcDbEntity
  8
Capa 1
 62
     1
370
     9
100
AcDbPolyline
 90
        6
 70
     1
 43
0.0
 10
-411.679980191623
 20
-141.8155344958763
 10
-432.7006862639483
 20
-141.8155344958763
 10
-443.2110393001114
 20
-160.0199999599945
 10
-432.7006862639483
 20
-178.2244654241136
 10
-411.679980191623
 20
-178.2244654241136
 10
-401.1696271554603
 20
-160.0199999599945
  0
LWPOLYLINE
  5
1E9
330
70
100
AcDbEntity
  8
Capa 1
 62
     1
370
     9
100
AcDbPolyline
 90
        6
 70
     1
 43
0.0
 10
-283.6639802236273
 20
-141.8155344958763
 10
-304.6846862959522
 20
-141.8155344958763
 10
-315.1950393321144
 20
-160.0199999599945
 10
-304.6846862959522
 20
-178.2244654241136
 10
-283.6639802236273
 20
-178.2244654241136
 10
-273.1536271874652
 20
-160.0199999599945
  0
LWPOLYLINE
  5
1EA
330
70
100
AcDbEntity
  8
Capa 1
 62
     1
370
     9
100
AcDbPolyline
 90
        6
 70
     1
 43
0.0
 10
-157.1719802552502
 20
-141.8155344958763
 10
-178.1926863275751
 20
-141.8155344958763
 10
-188.7030393637372
 20
-160.0199999599945
 10
-178.1926863275751
 20
-178.2244654241136
 10
-157.1719802552502
 20
-178.2244654241136
 10
-146.6616272190881
 20
-160.0199999599945
  0
LWPOLYLINE
  5
1EB
330
70
100
AcDbEntity
  8
Capa 1
 62
     1
370
     9
100
AcDbPolyline
 90
        3
 70
     1
 43
0.0
 10
-484.6743332121648
 20
-154.5370979355064
 10
-514.4992972375449
 20
-206.1954509613813
 10
-454.8493691867843
 20
-206.1954509613813
  0
LWPOLYLINE
  5
1EC
330
70
100
AcDbEntity
  8
Capa 1
 62
     1
370
     9
100
AcDbPolyline
 90
        3
 70
     1
 43
0.0
 10
-358.9443332435971
 20
-154.5370979355064
 10
-388.7692972689776
 20
-206.1954509613813
 10
-329.119369218216
 20
-206.1954509613813
  0
LWPOLYLINE
  5
1ED
330
70
100
AcDbEntity
  8
Capa 1
 62
     1
370
     9
100
AcDbPolyline
 90
        3
 70
     1
 43
0.0
 10
-234.7383332746486
 20
-154.5370979355064
 10
-264.5632973000301
 20
-206.1954509613813
 10
-204.9133692492672
 20
-206.1954509613813
  0
LWPOLYLINE
  5
1EE
330
70
100
AcDbEntity
  8
Capa 1
 62
     1
370
     9
100
AcDbPolyline
 90
        3
 70
     1
 43
0.0
 10
-44.23833332227363
 20
-50.14309796160516
 10
-74.06329734765508
 20
-101.8014509874801
 10
-14.41336929689217
 20
-101.8014509874801
  0
LWPOLYLINE
  5
1EF
330
70
100
AcDbEntity
  8
Capa 1
 62
     1
370
     9
100
AcDbPolyline
 90
        3
 70
     1
 43
0.0
 10
79.20566664686541
 20
-50.14309796160516
 10
49.38070262148396
 20
-101.8014509874801
 10
109.0306306722468
 20
-101.8014509874801
  0
ENDSEC
  0
SECTION
  2
OBJECTS
  0
DICTIONARY
  5
C
330
0
100
AcDbDictionary
281
     1
  3
ACAD_COLOR
350
63
  3
ACAD_DETAILVIEWSTYLE
350
6A
  3
ACAD_GROUP
350
D
  3
ACAD_LAYOUT
350
62
  3
ACAD_MATERIAL
350
10
  3
ACAD_MLEADERSTYLE
350
66
  3
ACAD_MLINESTYLE
350
5F
  3
ACAD_PLOTSETTINGS
350
61
  3
ACAD_PLOTSTYLENAME
350
E
  3
ACAD_SCALELIST
350
42
  3
ACAD_SECTIONVIEWSTYLE
350
68
  3
ACAD_TABLESTYLE
350
64
  3
ACAD_VISUALSTYLE
350
29
  3
ACDB_RECOMPOSE_DATA
350
1FD
  3
AcDbVariableDictionary
350
1F0
  0
DICTIONARY
  5
63
102
{ACAD_REACTORS
330
C
102
}
330
C
100
AcDbDictionary
281
     1
  0
DICTIONARY
  5
6A
102
{ACAD_REACTORS
330
C
102
}
330
C
100
AcDbDictionary
281
     1
  3
Imperial24
350
6B
  0
DICTIONARY
  5
D
102
{ACAD_REACTORS
330
C
102
}
330
C
100
AcDbDictionary
281
     1
  0
DICTIONARY
  5
62
102
{ACAD_REACTORS
330
C
102
}
330
C
100
AcDbDictionary
281
     1
  3
Layout1
350
6F
  3
Layout2
350
77
  3
Model
350
73
  0
DICTIONARY
  5
10
102
{ACAD_REACTORS
330
C
102
}
330
C
100
AcDbDictionary
281
     1
  3
ByBlock
350
19
  3
ByLayer
350
11
  3
Global
350
21
  0
DICTIONARY
  5
66
102
{ACAD_REACTORS
330
C
102
}
330
C
100
AcDbDictionary
281
     1
  3
Standard
350
67
  0
DICTIONARY
  5
5F
102
{ACAD_REACTORS
330
C
102
}
330
C
100
AcDbDictionary
281
     1
  3
Standard
350
60
  0
DICTIONARY
  5
61
102
{ACAD_REACTORS
330
C
102
}
330
C
100
AcDbDictionary
281
     1
  0
ACDBDICTIONARYWDFLT
  5
E
102
{ACAD_REACTORS
330
C
102
}
330
C
100
AcDbDictionary
281
     1
  3
Normal
350
F
100
AcDbDictionaryWithDefault
340
F
  0
DICTIONARY
  5
42
102
{ACAD_REACTORS
330
C
102
}
330
C
100
AcDbDictionary
281
     1
  3
A0
350
43
  3
A1
350
44
  3
A2
350
45
  3
A3
350
46
  3
A4
350
47
  3
A5
350
48
  3
A6
350
49
  3
A7
350
4A
  3
A8
350
4B
  3
A9
350
4C
  3
B0
350
4D
  3
B1
350
4E
  3
B2
350
4F
  3
B3
350
50
  3
B4
350
51
  3
B5
350
52
  3
B6
350
53
  0
DICTIONARY
  5
68
102
{ACAD_REACTORS
330
C
102
}
330
C
100
AcDbDictionary
281
     1
  3
Imperial24
350
69
  0
DICTIONARY
  5
64
102
{ACAD_REACTORS
330
C
102
}
330
C
100
AcDbDictionary
281
     1
  3
Standard
350
65
  0
DICTIONARY
  5
29
102
{ACAD_REACTORS
330
C
102
}
330
C
100
AcDbDictionary
281
     1
  3
2dWireframe
350
2F
  3
Basic
350
2E
  3
Brighten
350
35
  3
ColorChange
350
39
  3
Conceptual
350
32
  3
Dim
350
34
  3
EdgeColorOff
350
41
  3
Facepattern
350
38
  3
Flat
350
2A
  3
FlatWithEdges
350
2B
  3
Gouraud
350
2C
  3
GouraudWithEdges
350
2D
  3
Hidden
350
31
  3
JitterOff
350
3F
  3
Linepattern
350
37
  3
OverhangOff
350
40
  3
Realistic
350
33
  3
Shaded
350
3E
  3
Shaded with edges
350
3D
  3
Shades of Gray
350
3A
  3
Sketchy
350
3B
  3
Thicken
350
36
  3
Wireframe
350
30
  3
X-Ray
350
3C
  0
XRECORD
  5
1FD
102
{ACAD_REACTORS
330
C
102
}
330
C
100
AcDbXrecord
280
     1
 90
        1
330
65
  0
DICTIONARY
  5
1F0
102
{ACAD_REACTORS
330
C
102
}
330
C
100
AcDbDictionary
281
     1
  3
CANNOSCALE
350
1F6
  3
CMLEADERSTYLE
350
1F2
  3
CTABLESTYLE
350
1F1
  3
CVIEWDETAILSTYLE
350
1F3
  3
CVIEWSECTIONSTYLE
350
1F4
  3
LAYEREVAL
350
1F8
  3
LAYERNOTIFY
350
1F9
  3
LIGHTINGUNITS
350
1F7
  3
MSLTSCALE
350
1F5
  3
XCLIPFRAME
350
1FA
  0
ACDBDETAILVIEWSTYLE
  5
6B
102
{ACAD_XDICTIONARY
360
237
102
}
102
{ACAD_REACTORS
330
6A
102
}
330
6A
100
AcDbModelDocViewStyle
 70
     0
  3
Imperial24
290
     0
100
AcDbDetailViewStyle
 70
     0
 71
     0
 90
        3
 71
     1
340
55
 62
   256
 40
0.24
340
0
 62
   256
 40
0.24
300

 40
0.36
280
     3
 71
     2
340
5D
 90
       25
 62
   256
 71
     3
340
55
 62
   256
 40
0.24
 90
        1
 40
0.75
 90
        1
300
%<\AcVar ViewType \f "%tc1">% %<\AcVar ViewDetailId>%\PSCALE %<\AcVar ViewScale \f "%sn">%
 71
     4
340
5D
 90
       25
 62
   256
340
5D
 90
       25
 62
   256
280
     0
  0
LAYOUT
  5
6F
102
{ACAD_REACTORS
330
62
102
}
330
62
100
AcDbPlotSettings
  1

  2

  4

  6

 40
0.0
 41
0.0
 42
0.0
 43
0.0
 44
0.0
 45
0.0
 46
0.0
 47
0.0
 48
0.0
 49
0.0
140
0.0
141
0.0
142
1.0
143
1.0
 70
   688
 72
     0
 73
     0
 74
     5
  7

 75
    16
147
1.0
 76
     0
 77
     2
 78
   300
148
0.0
149
0.0
100
AcDbLayout
  1
Layout1
 70
     1
 71
     1
 10
0.0
 20
0.0
 11
12.0
 21
9.0
 12
0.0
 22
0.0
 32
0.0
 14
0.0
 24
0.0
 34
0.0
 15
0.0
 25
0.0
 35
0.0
146
0.0
 13
0.0
 23
0.0
 33
0.0
 16
1.0
 26
0.0
 36
0.0
 17
0.0
 27
1.0
 37
0.0
 76
     0
330
6C
  0
LAYOUT
  5
77
102
{ACAD_REACTORS
330
62
102
}
330
62
100
AcDbPlotSettings
  1

  2

  4

  6

 40
0.0
 41
0.0
 42
0.0
 43
0.0
 44
0.0
 45
0.0
 46
0.0
 47
0.0
 48
0.0
 49
0.0
140
0.0
141
0.0
142
1.0
143
1.0
 70
   688
 72
     0
 73
     0
 74
     5
  7

 75
    16
147
1.0
 76
     0
 77
     2
 78
   300
148
0.0
149
0.0
100
AcDbLayout
  1
Layout2
 70
     1
 71
     2
 10
0.0
 20
0.0
 11
12.0
 21
9.0
 12
0.0
 22
0.0
 32
0.0
 14
0.0
 24
0.0
 34
0.0
 15
0.0
 25
0.0
 35
0.0
146
0.0
 13
0.0
 23
0.0
 33
0.0
 16
1.0
 26
0.0
 36
0.0
 17
0.0
 27
1.0
 37
0.0
 76
     0
330
74
  0
LAYOUT
  5
73
102
{ACAD_REACTORS
330
62
102
}
330
62
100
AcDbPlotSettings
  1

  2

  4

  6

 40
0.0
 41
0.0
 42
0.0
 43
0.0
 44
0.0
 45
0.0
 46
0.0
 47
0.0
 48
0.0
 49
0.0
140
0.0
141
0.0
142
1.0
143
1.0
 70
  1712
 72
     0
 73
     0
 74
     0
  7

 75
     0
147
1.0
 76
     0
 77
     2
 78
   300
148
0.0
149
0.0
100
AcDbLayout
  1
Model
 70
     1
 71
     0
 10
0.0
 20
0.0
 11
12.0
 21
9.0
 12
0.0
 22
0.0
 32
0.0
 14
0.0
 24
0.0
 34
0.0
 15
0.0
 25
0.0
 35
0.0
146
0.0
 13
0.0
 23
0.0
 33
0.0
 16
1.0
 26
0.0
 36
0.0
 17
0.0
 27
1.0
 37
0.0
 76
     0
330
70
  0
MATERIAL
  5
19
102
{ACAD_XDICTIONARY
360
1A
102
}
102
{ACAD_REACTORS
330
10
102
}
330
10
100
AcDbMaterial
  1
ByBlock
 72
     0
 43
0.0208333333333333
 43
0.0
 43
0.0
 43
0.0
 43
0.0
 43
0.0208333333333333
 43
0.0
 43
0.0
 43
0.0
 43
0.0
 43
1.0
 43
0.0
 43
0.0
 43
0.0
 43
0.0
 43
1.0
 77
     0
 47
0.0208333333333333
 47
0.0
 47
0.0
 47
0.0
 47
0.0
 47
0.0208333333333333
 47
0.0
 47
0.0
 47
0.0
 47
0.0
 47
1.0
 47
0.0
 47
0.0
 47
0.0
 47
0.0
 47
1.0
171
     0
 49
0.0208333333333333
 49
0.0
 49
0.0
 49
0.0
 49
0.0
 49
0.0208333333333333
 49
0.0
 49
0.0
 49
0.0
 49
0.0
 49
1.0
 49
0.0
 49
0.0
 49
0.0
 49
0.0
 49
1.0
175
     0
142
0.0208333333333333
142
0.0
142
0.0
142
0.0
142
0.0
142
0.0208333333333333
142
0.0
142
0.0
142
0.0
142
0.0
142
1.0
142
0.0
142
0.0
142
0.0
142
0.0
142
1.0
179
     0
144
0.0208333333333333
144
0.0
144
0.0
144
0.0
144
0.0
144
0.0208333333333333
144
0.0
144
0.0
144
0.0
144
0.0
144
1.0
144
0.0
144
0.0
144
0.0
144
0.0
144
1.0
147
0.0208333333333333
147
0.0
147
0.0
147
0.0
147
0.0
147
0.0208333333333333
147
0.0
147
0.0
147
0.0
147
0.0
147
1.0
147
0.0
147
0.0
147
0.0
147
0.0
147
1.0
  0
MATERIAL
  5
11
102
{ACAD_XDICTIONARY
360
12
102
}
102
{ACAD_REACTORS
330
10
102
}
330
10
100
AcDbMaterial
  1
ByLayer
 72
     0
 43
0.0208333333333333
 43
0.0
 43
0.0
 43
0.0
 43
0.0
 43
0.0208333333333333
 43
0.0
 43
0.0
 43
0.0
 43
0.0
 43
1.0
 43
0.0
 43
0.0
 43
0.0
 43
0.0
 43
1.0
 77
     0
 47
0.0208333333333333
 47
0.0
 47
0.0
 47
0.0
 47
0.0
 47
0.0208333333333333
 47
0.0
 47
0.0
 47
0.0
 47
0.0
 47
1.0
 47
0.0
 47
0.0
 47
0.0
 47
0.0
 47
1.0
171
     0
 49
0.0208333333333333
 49
0.0
 49
0.0
 49
0.0
 49
0.0
 49
0.0208333333333333
 49
0.0
 49
0.0
 49
0.0
 49
0.0
 49
1.0
 49
0.0
 49
0.0
 49
0.0
 49
0.0
 49
1.0
175
     0
142
0.0208333333333333
142
0.0
142
0.0
142
0.0
142
0.0
142
0.0208333333333333
142
0.0
142
0.0
142
0.0
142
0.0
142
1.0
142
0.0
142
0.0
142
0.0
142
0.0
142
1.0
179
     0
144
0.0208333333333333
144
0.0
144
0.0
144
0.0
144
0.0
144
0.0208333333333333
144
0.0
144
0.0
144
0.0
144
0.0
144
1.0
144
0.0
144
0.0
144
0.0
144
0.0
144
1.0
147
0.0208333333333333
147
0.0
147
0.0
147
0.0
147
0.0
147
0.0208333333333333
147
0.0
147
0.0
147
0.0
147
0.0
147
1.0
147
0.0
147
0.0
147
0.0
147
0.0
147
1.0
  0
MATERIAL
  5
21
102
{ACAD_XDICTIONARY
360
22
102
}
102
{ACAD_REACTORS
330
10
102
}
330
10
100
AcDbMaterial
  1
Global
 72
     0
 43
0.0208333333333333
 43
0.0
 43
0.0
 43
0.0
 43
0.0
 43
0.0208333333333333
 43
0.0
 43
0.0
 43
0.0
 43
0.0
 43
1.0
 43
0.0
 43
0.0
 43
0.0
 43
0.0
 43
1.0
 77
     0
 47
0.0208333333333333
 47
0.0
 47
0.0
 47
0.0
 47
0.0
 47
0.0208333333333333
 47
0.0
 47
0.0
 47
0.0
 47
0.0
 47
1.0
 47
0.0
 47
0.0
 47
0.0
 47
0.0
 47
1.0
171
     0
 49
0.0208333333333333
 49
0.0
 49
0.0
 49
0.0
 49
0.0
 49
0.0208333333333333
 49
0.0
 49
0.0
 49
0.0
 49
0.0
 49
1.0
 49
0.0
 49
0.0
 49
0.0
 49
0.0
 49
1.0
175
     0
142
0.0208333333333333
142
0.0
142
0.0
142
0.0
142
0.0
142
0.0208333333333333
142
0.0
142
0.0
142
0.0
142
0.0
142
1.0
142
0.0
142
0.0
142
0.0
142
0.0
142
1.0
179
     0
144
0.0208333333333333
144
0.0
144
0.0
144
0.0
144
0.0
144
0.0208333333333333
144
0.0
144
0.0
144
0.0
144
0.0
144
1.0
144
0.0
144
0.0
144
0.0
144
0.0
144
1.0
147
0.0208333333333333
147
0.0
147
0.0
147
0.0
147
0.0
147
0.0208333333333333
147
0.0
147
0.0
147
0.0
147
0.0
147
1.0
147
0.0
147
0.0
147
0.0
147
0.0
147
1.0
  0
MLEADERSTYLE
  5
67
102
{ACAD_XDICTIONARY
360
233
102
}
102
{ACAD_REACTORS
330
66
102
}
330
66
100
AcDbMLeaderStyle
170
     2
171
     1
172
     0
 90
        2
 40
0.0
 41
0.0
173
     1
 91
-1056964608
340
5B
 92
       -2
290
     1
 42
0.09
291
     1
 43
0.36
  3
Standard
 44
0.18
300

342
55
174
     1
178
     6
175
     1
176
     0
 93
-1056964608
 45
0.18
292
     0
297
     0
 46
0.18
 94
-1056964608
 47
1.0
 49
1.0
140
1.0
293
     1
141
0.0
294
     1
177
     0
142
1.0
295
     0
296
     0
143
0.125
1001
ACAD_MLEADERVER
1070
     2
  0
MLINESTYLE
  5
60
102
{ACAD_REACTORS
330
5F
102
}
330
5F
100
AcDbMlineStyle
  2
STANDARD
 70
     0
  3

 62
   256
 51
90.0
 52
90.0
 71
     2
 49
0.5
 62
   256
  6
BYLAYER
 49
-0.5
 62
   256
  6
BYLAYER
  0
ACDBPLACEHOLDER
  5
F
102
{ACAD_REACTORS
330
E
102
}
330
E
  0
SCALE
  5
43
102
{ACAD_REACTORS
330
42
102
}
330
42
100
AcDbScale
 70
     0
300
1:1
140
1.0
141
1.0
290
     1
  0
SCALE
  5
44
102
{ACAD_REACTORS
330
42
102
}
330
42
100
AcDbScale
 70
     0
300
1/128" = 1'-0"
140
0.0078125
141
12.0
290
     0
  0
SCALE
  5
45
102
{ACAD_REACTORS
330
42
102
}
330
42
100
AcDbScale
 70
     0
300
1/64" = 1'-0"
140
0.015625
141
12.0
290
     0
  0
SCALE
  5
46
102
{ACAD_REACTORS
330
42
102
}
330
42
100
AcDbScale
 70
     0
300
1/32" = 1'-0"
140
0.03125
141
12.0
290
     0
  0
SCALE
  5
47
102
{ACAD_REACTORS
330
42
102
}
330
42
100
AcDbScale
 70
     0
300
1/16" = 1'-0"
140
0.0625
141
12.0
290
     0
  0
SCALE
  5
48
102
{ACAD_REACTORS
330
42
102
}
330
42
100
AcDbScale
 70
     0
300
3/32" = 1'-0"
140
0.09375
141
12.0
290
     0
  0
SCALE
  5
49
102
{ACAD_REACTORS
330
42
102
}
330
42
100
AcDbScale
 70
     0
300
1/8" = 1'-0"
140
0.125
141
12.0
290
     0
  0
SCALE
  5
4A
102
{ACAD_REACTORS
330
42
102
}
330
42
100
AcDbScale
 70
     0
300
3/16" = 1'-0"
140
0.1875
141
12.0
290
     0
  0
SCALE
  5
4B
102
{ACAD_REACTORS
330
42
102
}
330
42
100
AcDbScale
 70
     0
300
1/4" = 1'-0"
140
0.25
141
12.0
290
     0
  0
SCALE
  5
4C
102
{ACAD_REACTORS
330
42
102
}
330
42
100
AcDbScale
 70
     0
300
3/8" = 1'-0"
140
0.375
141
12.0
290
     0
  0
SCALE
  5
4D
102
{ACAD_REACTORS
330
42
102
}
330
42
100
AcDbScale
 70
     0
300
1/2" = 1'-0"
140
0.5
141
12.0
290
     0
  0
SCALE
  5
4E
102
{ACAD_REACTORS
330
42
102
}
330
42
100
AcDbScale
 70
     0
300
3/4" = 1'-0"
140
0.75
141
12.0
290
     0
  0
SCALE
  5
4F
102
{ACAD_REACTORS
330
42
102
}
330
42
100
AcDbScale
 70
     0
300
1" = 1'-0"
140
1.0
141
12.0
290
     0
  0
SCALE
  5
50
102
{ACAD_REACTORS
330
42
102
}
330
42
100
AcDbScale
 70
     0
300
1-1/2" = 1'-0"
140
1.5
141
12.0
290
     0
  0
SCALE
  5
51
102
{ACAD_REACTORS
330
42
102
}
330
42
100
AcDbScale
 70
     0
300
3" = 1'-0"
140
3.0
141
12.0
290
     0
  0
SCALE
  5
52
102
{ACAD_REACTORS
330
42
102
}
330
42
100
AcDbScale
 70
     0
300
6" = 1'-0"
140
6.0
141
12.0
290
     0
  0
SCALE
  5
53
102
{ACAD_REACTORS
330
42
102
}
330
42
100
AcDbScale
 70
     0
300
1'-0" = 1'-0"
140
12.0
141
12.0
290
     0
  0
ACDBSECTIONVIEWSTYLE
  5
69
102
{ACAD_XDICTIONARY
360
235
102
}
102
{ACAD_REACTORS
330
68
102
}
330
68
100
AcDbModelDocViewStyle
 70
     0
  3
Imperial24
290
     0
100
AcDbSectionViewStyle
 70
     0
 71
     0
 90
       78
 71
     1
340
55
 62
   256
 40
0.24
340
0
340
0
 62
   256
 40
0.24
300
I, O, Q, S, X, Z
 40
0.48
 90
        3
 40
0.18
 90
        1
 71
     2
340
5D
 90
       25
 62
   256
340
5D
 90
       50
 62
   256
 40
0.24
 40
0.0
 40
0.24
 71
     3
340
55
 62
   256
 40
0.24
 90
        1
 40
0.75
 90
        1
300
%<\AcVar ViewType \f "%tc1">% %<\AcVar ViewSectionStartId>%-%<\AcVar ViewSectionEndId>%\PSCALE %<\AcVar ViewScale \f "%sn">%
 71
     4
 62
   256
 62
   257
300
ANSI31
 40
1.0
 90
        0
290
     0
290
     0
 90
        6
 40
0.0
 40
1.570796326794896
 40
0.2617993877991494
 40
1.308996938995747
 40
-0.2617993877991494
 40
1.832595714594046
  0
TABLESTYLE
  5
65
102
{ACAD_XDICTIONARY
360
1FB
102
}
102
{ACAD_REACTORS
330
64
102
}
330
64
100
AcDbTableStyle
  3
Standard
 70
     0
 71
     0
 40
0.06
 41
0.06
280
     0
281
     0
  7
Standard
140
0.18
170
     2
 62
     0
 63
     7
283
     0
274
    -2
284
     1
 64
     0
275
    -2
285
     1
 65
     0
276
    -2
286
     1
 66
     0
277
    -2
287
     1
 67
     0
278
    -2
288
     1
 68
     0
279
    -2
289
     1
 69
     0
  7
Standard
140
0.25
170
     5
 62
     0
 63
     7
283
     0
274
    -2
284
     1
 64
     0
275
    -2
285
     1
 65
     0
276
    -2
286
     1
 66
     0
277
    -2
287
     1
 67
     0
278
    -2
288
     1
 68
     0
279
    -2
289
     1
 69
     0
  7
Standard
140
0.18
170
     5
 62
     0
 63
     7
283
     0
274
    -2
284
     1
 64
     0
275
    -2
285
     1
 65
     0
276
    -2
286
     1
 66
     0
277
    -2
287
     1
 67
     0
278
    -2
288
     1
 68
     0
279
    -2
289
     1
 69
     0
  0
VISUALSTYLE
  5
2F
102
{ACAD_XDICTIONARY
360
20B
102
}
102
{ACAD_REACTORS
330
29
102
}
330
29
100
AcDbVisualStyle
  2
2dWireframe
 70
     4
 71
     0
 72
     2
 73
     0
 90
        0
 40
-0.6
 41
-30.0
 62
     5
 63
     7
421
 16777215
 74
     1
 91
        4
 64
     7
 65
   257
 75
     1
175
     1
 42
1.0
 92
        0
 66
   257
 43
1.0
 76
     1
 77
     6
 78
     2
 67
     7
 79
     5
170
     0
171
     0
290
     0
174
     0
 93
        1
 44
0.0
173
     0
291
     0
 45
0.0
1001
ACAD
1000
AcDbSavedByObjectVersion
1070
     0
  0
VISUALSTYLE
  5
2E
102
{ACAD_XDICTIONARY
360
209
102
}
102
{ACAD_REACTORS
330
29
102
}
330
29
100
AcDbVisualStyle
  2
Basic
 70
     7
 71
     1
 72
     0
 73
     1
 90
        0
 40
-0.6
 41
-30.0
 62
     5
 63
     7
421
 16777215
 74
     0
 91
        4
 64
     7
 65
   257
 75
     1
175
     1
 42
1.0
 92
        8
 66
     7
 43
1.0
 76
     1
 77
     6
 78
     2
 67
     7
 79
     5
170
     0
171
     0
290
     0
174
     0
 93
        1
 44
0.0
173
     0
291
     1
 45
0.0
1001
ACAD
1000
AcDbSavedByObjectVersion
1070
     0
  0
VISUALSTYLE
  5
35
102
{ACAD_XDICTIONARY
360
217
102
}
102
{ACAD_REACTORS
330
29
102
}
330
29
100
AcDbVisualStyle
  2
Brighten
 70
    12
 71
     2
 72
     2
 73
     0
 90
        0
 40
-0.6
 41
-30.0
 62
     5
 63
     7
421
 16777215
 74
     1
 91
        4
 64
     7
 65
   257
 75
     1
175
     1
 42
1.0
 92
        8
 66
     7
 43
1.0
 76
     1
 77
     6
 78
     2
 67
     7
 79
     5
170
     0
171
     0
290
     0
174
     0
 93
        1
 44
50.0
173
     0
291
     1
 45
0.0
1001
ACAD
1000
AcDbSavedByObjectVersion
1070
     0
  0
VISUALSTYLE
  5
39
102
{ACAD_XDICTIONARY
360
21F
102
}
102
{ACAD_REACTORS
330
29
102
}
330
29
100
AcDbVisualStyle
  2
ColorChange
 70
    16
 71
     2
 72
     2
 73
     3
 90
        0
 40
-0.6
 41
-30.0
 62
     5
 63
     8
421
  8421504
 74
     1
 91
        4
 64
     7
 65
   257
 75
     1
175
     1
 42
1.0
 92
        8
 66
     8
424
  8421504
 43
1.0
 76
     1
 77
     6
 78
     2
 67
     7
 79
     5
170
     0
171
     0
290
     0
174
     0
 93
        1
 44
0.0
173
     0
291
     1
 45
0.0
1001
ACAD
1000
AcDbSavedByObjectVersion
1070
     0
  0
VISUALSTYLE
  5
32
102
{ACAD_XDICTIONARY
360
211
102
}
102
{ACAD_REACTORS
330
29
102
}
330
29
100
AcDbVisualStyle
  2
Conceptual
 70
     9
 71
     3
 72
     2
 73
     0
 90
        0
 40
-0.6
 41
-30.0
 62
     5
 63
     7
421
 16777215
 74
     2
 91
        2
 64
     7
 65
   257
 75
     1
175
     1
 42
179.0
 92
        8
 66
     7
 43
1.0
 76
     1
 77
     6
 78
     2
 67
     7
 79
     3
170
     0
171
     0
290
     0
174
     0
 93
        1
 44
0.0
173
     0
291
     0
 45
0.0
1001
ACAD
1000
AcDbSavedByObjectVersion
1070
     0
  0
VISUALSTYLE
  5
34
102
{ACAD_XDICTIONARY
360
215
102
}
102
{ACAD_REACTORS
330
29
102
}
330
29
100
AcDbVisualStyle
  2
Dim
 70
    11
 71
     2
 72
     2
 73
     0
 90
        0
 40
-0.6
 41
-30.0
 62
     5
 63
     7
421
 16777215
 74
     1
 91
        4
 64
     7
 65
   257
 75
     1
175
     1
 42
1.0
 92
        8
 66
     7
 43
1.0
 76
     1
 77
     6
 78
     2
 67
     7
 79
     5
170
     0
171
     0
290
     0
174
     0
 93
        1
 44
-50.0
173
     0
291
     1
 45
0.0
1001
ACAD
1000
AcDbSavedByObjectVersion
1070
     0
  0
VISUALSTYLE
  5
41
102
{ACAD_XDICTIONARY
360
22F
102
}
102
{ACAD_REACTORS
330
29
102
}
330
29
100
AcDbVisualStyle
  2
EdgeColorOff
 70
    22
 71
     2
 72
     2
 73
     0
 90
        0
 40
-0.6
 41
-30.0
 62
     5
 63
     7
421
 16777215
 74
     1
 91
        4
 64
     7
 65
   257
 75
     1
175
     1
 42
1.0
 92
        8
 66
     7
 43
1.0
 76
     1
 77
     6
 78
     2
 67
     7
 79
     5
170
     0
171
     0
290
     0
174
     0
 93
        1
 44
0.0
173
     0
291
     1
 45
0.0
1001
ACAD
1000
AcDbSavedByObjectVersion
1070
     0
  0
VISUALSTYLE
  5
38
102
{ACAD_XDICTIONARY
360
21D
102
}
102
{ACAD_REACTORS
330
29
102
}
330
29
100
AcDbVisualStyle
  2
Facepattern
 70
    15
 71
     2
 72
     2
 73
     0
 90
        0
 40
-0.6
 41
-30.0
 62
     5
 63
     7
421
 16777215
 74
     1
 91
        4
 64
     7
 65
   257
 75
     1
175
     1
 42
1.0
 92
        8
 66
     7
 43
1.0
 76
     1
 77
     6
 78
     2
 67
     7
 79
     5
170
     0
171
     0
290
     0
174
     0
 93
        1
 44
0.0
173
     0
291
     1
 45
0.0
1001
ACAD
1000
AcDbSavedByObjectVersion
1070
     0
  0
VISUALSTYLE
  5
2A
102
{ACAD_XDICTIONARY
360
201
102
}
102
{ACAD_REACTORS
330
29
102
}
330
29
100
AcDbVisualStyle
  2
Flat
 70
     0
 71
     2
 72
     1
 73
     1
 90
        2
 40
-0.6
 41
30.0
 62
     5
 63
     7
421
 16777215
 74
     0
 91
        0
 64
     7
 65
   257
 75
     1
175
     1
 42
1.0
 92
        8
 66
     7
 43
1.0
 76
     1
 77
     6
 78
     2
 67
     7
 79
     5
170
     0
171
     0
290
     0
174
     0
 93
       13
 44
0.0
173
     0
291
     1
 45
0.0
1001
ACAD
1000
AcDbSavedByObjectVersion
1070
     0
  0
VISUALSTYLE
  5
2B
102
{ACAD_XDICTIONARY
360
203
102
}
102
{ACAD_REACTORS
330
29
102
}
330
29
100
AcDbVisualStyle
  2
FlatWithEdges
 70
     1
 71
     2
 72
     1
 73
     1
 90
        2
 40
-0.6
 41
30.0
 62
     5
 63
     7
421
 16777215
 74
     1
 91
        0
 64
     7
 65
   257
 75
     1
175
     1
 42
1.0
 92
        0
 66
   257
 43
1.0
 76
     1
 77
     6
 78
     2
 67
     7
 79
     5
170
     0
171
     0
290
     0
174
     0
 93
       13
 44
0.0
173
     0
291
     1
 45
0.0
1001
ACAD
1000
AcDbSavedByObjectVersion
1070
     0
  0
VISUALSTYLE
  5
2C
102
{ACAD_XDICTIONARY
360
205
102
}
102
{ACAD_REACTORS
330
29
102
}
330
29
100
AcDbVisualStyle
  2
Gouraud
 70
     2
 71
     2
 72
     2
 73
     1
 90
        2
 40
-0.6
 41
30.0
 62
     5
 63
     7
421
 16777215
 74
     0
 91
        0
 64
     7
 65
   257
 75
     1
175
     1
 42
1.0
 92
        0
 66
     7
 43
1.0
 76
     1
 77
     6
 78
     2
 67
     7
 79
     5
170
     0
171
     0
290
     0
174
     0
 93
       13
 44
0.0
173
     0
291
     1
 45
0.0
1001
ACAD
1000
AcDbSavedByObjectVersion
1070
     0
  0
VISUALSTYLE
  5
2D
102
{ACAD_XDICTIONARY
360
207
102
}
102
{ACAD_REACTORS
330
29
102
}
330
29
100
AcDbVisualStyle
  2
GouraudWithEdges
 70
     3
 71
     2
 72
     2
 73
     1
 90
        2
 40
-0.6
 41
30.0
 62
     5
 63
     7
421
 16777215
 74
     1
 91
        0
 64
     7
 65
   257
 75
     1
175
     1
 42
1.0
 92
        0
 66
   257
 43
1.0
 76
     1
 77
     6
 78
     2
 67
     7
 79
     5
170
     0
171
     0
290
     0
174
     0
 93
       13
 44
0.0
173
     0
291
     1
 45
0.0
1001
ACAD
1000
AcDbSavedByObjectVersion
1070
     0
  0
VISUALSTYLE
  5
31
102
{ACAD_XDICTIONARY
360
20F
102
}
102
{ACAD_REACTORS
330
29
102
}
330
29
100
AcDbVisualStyle
  2
Hidden
 70
     6
 71
     1
 72
     2
 73
     2
 90
        0
 40
-0.6
 41
-30.0
 62
     5
 63
     7
421
 16777215
 74
     2
 91
        2
 64
     7
 65
   257
 75
     2
175
     1
 42
40.0
 92
        0
 66
   257
 43
1.0
 76
     1
 77
     6
 78
     2
 67
     7
 79
     3
170
     0
171
     0
290
     0
174
     0
 93
        1
 44
0.0
173
     0
291
     0
 45
0.0
1001
ACAD
1000
AcDbSavedByObjectVersion
1070
     0
  0
VISUALSTYLE
  5
3F
102
{ACAD_XDICTIONARY
360
22B
102
}
102
{ACAD_REACTORS
330
29
102
}
330
29
100
AcDbVisualStyle
  2
JitterOff
 70
    20
 71
     2
 72
     2
 73
     0
 90
        0
 40
-0.6
 41
-30.0
 62
     5
 63
     7
421
 16777215
 74
     1
 91
        4
 64
     7
 65
   257
 75
     1
175
     1
 42
1.0
 92
       10
 66
     7
 43
1.0
 76
     1
 77
     6
 78
     2
 67
     7
 79
     5
170
     0
171
     0
290
     0
174
     0
 93
        1
 44
0.0
173
     0
291
     1
 45
0.0
1001
ACAD
1000
AcDbSavedByObjectVersion
1070
     0
  0
VISUALSTYLE
  5
37
102
{ACAD_XDICTIONARY
360
21B
102
}
102
{ACAD_REACTORS
330
29
102
}
330
29
100
AcDbVisualStyle
  2
Linepattern
 70
    14
 71
     2
 72
     2
 73
     0
 90
        0
 40
-0.6
 41
-30.0
 62
     5
 63
     7
421
 16777215
 74
     1
 91
        4
 64
     7
 65
   257
 75
     7
175
     7
 42
1.0
 92
        8
 66
     7
 43
1.0
 76
     1
 77
     6
 78
     2
 67
     7
 79
     5
170
     0
171
     0
290
     0
174
     0
 93
        1
 44
0.0
173
     0
291
     1
 45
0.0
1001
ACAD
1000
AcDbSavedByObjectVersion
1070
     0
  0
VISUALSTYLE
  5
40
102
{ACAD_XDICTIONARY
360
22D
102
}
102
{ACAD_REACTORS
330
29
102
}
330
29
100
AcDbVisualStyle
  2
OverhangOff
 70
    21
 71
     2
 72
     2
 73
     0
 90
        0
 40
-0.6
 41
-30.0
 62
     5
 63
     7
421
 16777215
 74
     1
 91
        4
 64
     7
 65
   257
 75
     1
175
     1
 42
1.0
 92
        9
 66
     7
 43
1.0
 76
     1
 77
     6
 78
     2
 67
     7
 79
     5
170
     0
171
     0
290
     0
174
     0
 93
        1
 44
0.0
173
     0
291
     1
 45
0.0
1001
ACAD
1000
AcDbSavedByObjectVersion
1070
     0
  0
VISUALSTYLE
  5
33
102
{ACAD_XDICTIONARY
360
213
102
}
102
{ACAD_REACTORS
330
29
102
}
330
29
100
AcDbVisualStyle
  2
Realistic
 70
     8
 71
     2
 72
     3
 73
     0
 90
        2
 40
-0.6
 41
30.0
 62
     5
 63
     7
421
 16777215
 74
     0
 91
        0
 64
     7
 65
   257
 75
     1
175
     1
 42
1.0
 92
        8
 66
   257
 43
1.0
 76
     1
 77
     6
 78
     2
 67
     7
 79
     3
170
     0
171
     0
290
     0
174
     0
 93
       13
 44
0.0
173
     0
291
     0
 45
0.0
1001
ACAD
1000
AcDbSavedByObjectVersion
1070
     0
  0
VISUALSTYLE
  5
3E
102
{ACAD_XDICTIONARY
360
229
102
}
102
{ACAD_REACTORS
330
29
102
}
330
29
100
AcDbVisualStyle
  2
Shaded
 70
    27
 71
     2
 72
     2
 73
     1
 90
        2
 40
-0.6
 41
30.0
 62
     5
 63
     7
421
 16777215
 74
     0
 91
        4
 64
     7
 65
   257
 75
     1
175
     1
 42
1.0
 92
        8
 66
   257
 43
1.0
 76
     1
 77
     6
 78
     2
 67
     8
425
  7895160
 79
     3
170
     0
171
     0
290
     0
174
     0
 93
        5
 44
0.0
173
     0
291
     0
 45
0.0
1001
ACAD
1000
AcDbSavedByObjectVersion
1070
     0
  0
VISUALSTYLE
  5
3D
102
{ACAD_XDICTIONARY
360
227
102
}
102
{ACAD_REACTORS
330
29
102
}
330
29
100
AcDbVisualStyle
  2
Shaded with edges
 70
    26
 71
     2
 72
     2
 73
     1
 90
        2
 40
-0.6
 41
30.0
 62
     5
 63
     7
421
 16777215
 74
     1
 91
        2
 64
     7
 65
   257
 75
     2
175
     1
 42
1.0
 92
        8
 66
   257
 43
1.0
 76
     1
 77
     6
 78
     2
 67
     7
 79
     3
170
     0
171
     0
290
     0
174
     0
 93
        5
 44
0.0
173
     0
291
     0
 45
0.0
1001
ACAD
1000
AcDbSavedByObjectVersion
1070
     0
  0
VISUALSTYLE
  5
3A
102
{ACAD_XDICTIONARY
360
221
102
}
102
{ACAD_REACTORS
330
29
102
}
330
29
100
AcDbVisualStyle
  2
Shades of Gray
 70
    23
 71
     2
 72
     2
 73
     3
 90
        0
 40
-0.6
 41
-30.0
 62
     5
 63
     7
421
 16777215
 74
     2
 91
        2
 64
     7
 65
     7
 75
     1
175
     1
 42
40.0
 92
        8
 66
     7
 43
1.0
 76
     1
 77
     6
 78
     2
 67
     7
 79
     3
170
     0
171
     0
290
     0
174
     0
 93
        1
 44
0.0
173
     0
291
     0
 45
0.0
1001
ACAD
1000
AcDbSavedByObjectVersion
1070
     0
  0
VISUALSTYLE
  5
3B
102
{ACAD_XDICTIONARY
360
223
102
}
102
{ACAD_REACTORS
330
29
102
}
330
29
100
AcDbVisualStyle
  2
Sketchy
 70
    24
 71
     1
 72
     2
 73
     2
 90
        0
 40
-0.6
 41
-30.0
 62
     5
 63
     7
421
 16777215
 74
     2
 91
        2
 64
     7
 65
     7
 75
     1
175
     1
 42
40.0
 92
       11
 66
     7
 43
1.0
 76
     1
 77
     6
 78
     2
 67
     7
 79
     6
170
     0
171
     0
290
     0
174
     0
 93
        1
 44
0.0
173
     0
291
     0
 45
0.0
1001
ACAD
1000
AcDbSavedByObjectVersion
1070
     0
  0
VISUALSTYLE
  5
36
102
{ACAD_XDICTIONARY
360
219
102
}
102
{ACAD_REACTORS
330
29
102
}
330
29
100
AcDbVisualStyle
  2
Thicken
 70
    13
 71
     2
 72
     2
 73
     0
 90
        0
 40
-0.6
 41
-30.0
 62
     5
 63
     7
421
 16777215
 74
     1
 91
        4
 64
     7
 65
   257
 75
     1
175
     1
 42
1.0
 92
       12
 66
     7
 43
1.0
 76
     1
 77
     6
 78
     2
 67
     7
 79
     5
170
     0
171
     0
290
     0
174
     0
 93
        1
 44
0.0
173
     0
291
     1
 45
0.0
1001
ACAD
1000
AcDbSavedByObjectVersion
1070
     0
  0
VISUALSTYLE
  5
30
102
{ACAD_XDICTIONARY
360
20D
102
}
102
{ACAD_REACTORS
330
29
102
}
330
29
100
AcDbVisualStyle
  2
Wireframe
 70
     5
 71
     0
 72
     2
 73
     0
 90
        0
 40
-0.6
 41
-30.0
 62
     5
 63
     7
421
 16777215
 74
     1
 91
        4
 64
     7
 65
   257
 75
     1
175
     1
 42
1.0
 92
        0
 66
   257
 43
1.0
 76
     1
 77
     6
 78
     2
 67
     7
 79
     3
170
     0
171
     0
290
     0
174
     0
 93
        1
 44
0.0
173
     0
291
     0
 45
0.0
1001
ACAD
1000
AcDbSavedByObjectVersion
1070
     0
  0
VISUALSTYLE
  5
3C
102
{ACAD_XDICTIONARY
360
225
102
}
102
{ACAD_REACTORS
330
29
102
}
330
29
100
AcDbVisualStyle
  2
X-Ray
 70
    25
 71
     2
 72
     2
 73
     1
 90
        1
 40
0.5
 41
-30.0
 62
     5
 63
     7
421
 16777215
 74
     1
 91
        0
 64
     7
 65
   257
 75
     1
175
     1
 42
1.0
 92
        8
 66
     7
 43
1.0
 76
     1
 77
     6
 78
     2
 67
     7
 79
     3
170
     0
171
     0
290
     0
174
     0
 93
       13
 44
0.0
173
     0
291
     0
 45
0.0
1001
ACAD
1000
AcDbSavedByObjectVersion
1070
     0
  0
DICTIONARYVAR
  5
1F6
102
{ACAD_REACTORS
330
1F0
102
}
330
1F0
100
DictionaryVariables
280
     0
  1
1:1
  0
DICTIONARYVAR
  5
1F2
102
{ACAD_REACTORS
330
1F0
102
}
330
1F0
100
DictionaryVariables
280
     0
  1
STANDARD
  0
DICTIONARYVAR
  5
1F1
102
{ACAD_REACTORS
330
1F0
102
}
330
1F0
100
DictionaryVariables
280
     0
  1
STANDARD
  0
DICTIONARYVAR
  5
1F3
102
{ACAD_REACTORS
330
1F0
102
}
330
1F0
100
DictionaryVariables
280
     0
  1
Imperial24
  0
DICTIONARYVAR
  5
1F4
102
{ACAD_REACTORS
330
1F0
102
}
330
1F0
100
DictionaryVariables
280
     0
  1
Imperial24
  0
DICTIONARYVAR
  5
1F8
102
{ACAD_REACTORS
330
1F0
102
}
330
1F0
100
DictionaryVariables
280
     0
  1
0
  0
DICTIONARYVAR
  5
1F9
102
{ACAD_REACTORS
330
1F0
102
}
330
1F0
100
DictionaryVariables
280
     0
  1
0
  0
DICTIONARYVAR
  5
1F7
102
{ACAD_REACTORS
330
1F0
102
}
330
1F0
100
DictionaryVariables
280
     0
  1
2
  0
DICTIONARYVAR
  5
1F5
102
{ACAD_REACTORS
330
1F0
102
}
330
1F0
100
DictionaryVariables
280
     0
  1
1
  0
DICTIONARYVAR
  5
1FA
102
{ACAD_REACTORS
330
1F0
102
}
330
1F0
100
DictionaryVariables
280
     0
  1
2
  0
DICTIONARY
  5
237
330
6B
100
AcDbDictionary
280
     1
281
     1
  3
ACAD_XREC_ROUNDTRIP
360
238
  0
DICTIONARY
  5
1A
330
19
100
AcDbDictionary
280
     1
281
     1
  3
ACAD_XREC_ROUNDTRIP
360
1FF
  3
BUMPTILE
360
1C
  3
DIFFUSETILE
360
1B
  3
OPACITYTILE
360
1F
  3
REFLECTIONTILE
360
1E
  3
REFRACTIONTILE
360
20
  3
SPECULARTILE
360
1D
  0
DICTIONARY
  5
12
330
11
100
AcDbDictionary
280
     1
281
     1
  3
ACAD_XREC_ROUNDTRIP
360
1FE
  3
BUMPTILE
360
14
  3
DIFFUSETILE
360
13
  3
OPACITYTILE
360
17
  3
REFLECTIONTILE
360
16
  3
REFRACTIONTILE
360
18
  3
SPECULARTILE
360
15
  0
DICTIONARY
  5
22
330
21
100
AcDbDictionary
280
     1
281
     1
  3
ACAD_XREC_ROUNDTRIP
360
200
  3
BUMPTILE
360
24
  3
DIFFUSETILE
360
23
  3
OPACITYTILE
360
27
  3
REFLECTIONTILE
360
26
  3
REFRACTIONTILE
360
28
  3
SPECULARTILE
360
25
  0
DICTIONARY
  5
233
330
67
100
AcDbDictionary
280
     1
281
     1
  3
ACAD_XREC_ROUNDTRIP
360
234
  0
DICTIONARY
  5
235
330
69
100
AcDbDictionary
280
     1
281
     1
  3
ACAD_XREC_ROUNDTRIP
360
236
  0
DICTIONARY
  5
1FB
330
65
100
AcDbDictionary
280
     1
281
     1
  3
ACAD_ROUNDTRIP_2008_TABLESTYLE_CELLSTYLEMAP
360
1FC
  3
ACAD_XREC_ROUNDTRIP
360
231
  0
DICTIONARY
  5
20B
330
2F
100
AcDbDictionary
280
     1
281
     1
  3
ACAD_XREC_ROUNDTRIP
360
20C
  0
DICTIONARY
  5
209
330
2E
100
AcDbDictionary
280
     1
281
     1
  3
ACAD_XREC_ROUNDTRIP
360
20A
  0
DICTIONARY
  5
217
330
35
100
AcDbDictionary
280
     1
281
     1
  3
ACAD_XREC_ROUNDTRIP
360
218
  0
DICTIONARY
  5
21F
330
39
100
AcDbDictionary
280
     1
281
     1
  3
ACAD_XREC_ROUNDTRIP
360
220
  0
DICTIONARY
  5
211
330
32
100
AcDbDictionary
280
     1
281
     1
  3
ACAD_XREC_ROUNDTRIP
360
212
  0
DICTIONARY
  5
215
330
34
100
AcDbDictionary
280
     1
281
     1
  3
ACAD_XREC_ROUNDTRIP
360
216
  0
DICTIONARY
  5
22F
330
41
100
AcDbDictionary
280
     1
281
     1
  3
ACAD_XREC_ROUNDTRIP
360
230
  0
DICTIONARY
  5
21D
330
38
100
AcDbDictionary
280
     1
281
     1
  3
ACAD_XREC_ROUNDTRIP
360
21E
  0
DICTIONARY
  5
201
330
2A
100
AcDbDictionary
280
     1
281
     1
  3
ACAD_XREC_ROUNDTRIP
360
202
  0
DICTIONARY
  5
203
330
2B
100
AcDbDictionary
280
     1
281
     1
  3
ACAD_XREC_ROUNDTRIP
360
204
  0
DICTIONARY
  5
205
330
2C
100
AcDbDictionary
280
     1
281
     1
  3
ACAD_XREC_ROUNDTRIP
360
206
  0
DICTIONARY
  5
207
330
2D
100
AcDbDictionary
280
     1
281
     1
  3
ACAD_XREC_ROUNDTRIP
360
208
  0
DICTIONARY
  5
20F
330
31
100
AcDbDictionary
280
     1
281
     1
  3
ACAD_XREC_ROUNDTRIP
360
210
  0
DICTIONARY
  5
22B
330
3F
100
AcDbDictionary
280
     1
281
     1
  3
ACAD_XREC_ROUNDTRIP
360
22C
  0
DICTIONARY
  5
21B
330
37
100
AcDbDictionary
280
     1
281
     1
  3
ACAD_XREC_ROUNDTRIP
360
21C
  0
DICTIONARY
  5
22D
330
40
100
AcDbDictionary
280
     1
281
     1
  3
ACAD_XREC_ROUNDTRIP
360
22E
  0
DICTIONARY
  5
213
330
33
100
AcDbDictionary
280
     1
281
     1
  3
ACAD_XREC_ROUNDTRIP
360
214
  0
DICTIONARY
  5
229
330
3E
100
AcDbDictionary
280
     1
281
     1
  3
ACAD_XREC_ROUNDTRIP
360
22A
  0
DICTIONARY
  5
227
330
3D
100
AcDbDictionary
280
     1
281
     1
  3
ACAD_XREC_ROUNDTRIP
360
228
  0
DICTIONARY
  5
221
330
3A
100
AcDbDictionary
280
     1
281
     1
  3
ACAD_XREC_ROUNDTRIP
360
222
  0
DICTIONARY
  5
223
330
3B
100
AcDbDictionary
280
     1
281
     1
  3
ACAD_XREC_ROUNDTRIP
360
224
  0
DICTIONARY
  5
219
330
36
100
AcDbDictionary
280
     1
281
     1
  3
ACAD_XREC_ROUNDTRIP
360
21A
  0
DICTIONARY
  5
20D
330
30
100
AcDbDictionary
280
     1
281
     1
  3
ACAD_XREC_ROUNDTRIP
360
20E
  0
DICTIONARY
  5
225
330
3C
100
AcDbDictionary
280
     1
281
     1
  3
ACAD_XREC_ROUNDTRIP
360
226
  0
XRECORD
  5
238
102
{ACAD_REACTORS
330
237
102
}
330
237
100
AcDbXrecord
280
     1
102
DISPLAYNAME
  1
Imperial24
102
FLAGS
 90
        0
  0
XRECORD
  5
1FF
102
{ACAD_REACTORS
330
1A
102
}
330
1A
100
AcDbXrecord
280
     1
102
MATERIAL
148
0.0
149
0.0
149
0.0
 93
        0
 94
      127
282
     0
 72
     0
 77
     0
171
     0
175
     0
179
     0
273
     0
  0
XRECORD
  5
1C
102
{ACAD_REACTORS
330
1A
102
}
330
1A
100
AcDbXrecord
280
     1
270
     1
271
     1
  0
XRECORD
  5
1B
102
{ACAD_REACTORS
330
1A
102
}
330
1A
100
AcDbXrecord
280
     1
270
     1
271
     1
  0
XRECORD
  5
1F
102
{ACAD_REACTORS
330
1A
102
}
330
1A
100
AcDbXrecord
280
     1
270
     1
271
     1
  0
XRECORD
  5
1E
102
{ACAD_REACTORS
330
1A
102
}
330
1A
100
AcDbXrecord
280
     1
270
     1
271
     1
  0
XRECORD
  5
20
102
{ACAD_REACTORS
330
1A
102
}
330
1A
100
AcDbXrecord
280
     1
270
     1
271
     1
  0
XRECORD
  5
1D
102
{ACAD_REACTORS
330
1A
102
}
330
1A
100
AcDbXrecord
280
     1
270
     1
271
     1
  0
XRECORD
  5
1FE
102
{ACAD_REACTORS
330
12
102
}
330
12
100
AcDbXrecord
280
     1
102
MATERIAL
148
0.0
149
0.0
149
0.0
 93
        0
 94
      127
282
     0
 72
     0
 77
     0
171
     0
175
     0
179
     0
273
     0
  0
XRECORD
  5
14
102
{ACAD_REACTORS
330
12
102
}
330
12
100
AcDbXrecord
280
     1
270
     1
271
     1
  0
XRECORD
  5
13
102
{ACAD_REACTORS
330
12
102
}
330
12
100
AcDbXrecord
280
     1
270
     1
271
     1
  0
XRECORD
  5
17
102
{ACAD_REACTORS
330
12
102
}
330
12
100
AcDbXrecord
280
     1
270
     1
271
     1
  0
XRECORD
  5
16
102
{ACAD_REACTORS
330
12
102
}
330
12
100
AcDbXrecord
280
     1
270
     1
271
     1
  0
XRECORD
  5
18
102
{ACAD_REACTORS
330
12
102
}
330
12
100
AcDbXrecord
280
     1
270
     1
271
     1
  0
XRECORD
  5
15
102
{ACAD_REACTORS
330
12
102
}
330
12
100
AcDbXrecord
280
     1
270
     1
271
     1
  0
XRECORD
  5
200
102
{ACAD_REACTORS
330
22
102
}
330
22
100
AcDbXrecord
280
     1
102
MATERIAL
148
0.0
149
0.0
149
0.0
 93
        0
 94
      127
282
     0
 72
     0
 77
     0
171
     0
175
     0
179
     0
273
     0
  0
XRECORD
  5
24
102
{ACAD_REACTORS
330
22
102
}
330
22
100
AcDbXrecord
280
     1
270
     1
271
     1
  0
XRECORD
  5
23
102
{ACAD_REACTORS
330
22
102
}
330
22
100
AcDbXrecord
280
     1
270
     1
271
     1
  0
XRECORD
  5
27
102
{ACAD_REACTORS
330
22
102
}
330
22
100
AcDbXrecord
280
     1
270
     1
271
     1
  0
XRECORD
  5
26
102
{ACAD_REACTORS
330
22
102
}
330
22
100
AcDbXrecord
280
     1
270
     1
271
     1
  0
XRECORD
  5
28
102
{ACAD_REACTORS
330
22
102
}
330
22
100
AcDbXrecord
280
     1
270
     1
271
     1
  0
XRECORD
  5
25
102
{ACAD_REACTORS
330
22
102
}
330
22
100
AcDbXrecord
280
     1
270
     1
271
     1
  0
XRECORD
  5
234
102
{ACAD_REACTORS
330
233
102
}
330
233
100
AcDbXrecord
280
     1
102
ACAD_ROUNDTRIP_2012_MLEADER_STYLE
298
     1
  0
XRECORD
  5
236
102
{ACAD_REACTORS
330
235
102
}
330
235
100
AcDbXrecord
280
     1
102
DISPLAYNAME
  1
Imperial24
102
FLAGS
 90
        0
  0
CELLSTYLEMAP
  5
1FC
102
{ACAD_REACTORS
330
1FB
102
}
330
1FB
100
AcDbCellStyleMap
 90
        3
300
CELLSTYLE
  1
TABLEFORMAT_BEGIN
 90
        5
170
     1
 91
        0
 92
    32768
 62
   257
 93
        1
300
CONTENTFORMAT
  1
CONTENTFORMAT_BEGIN
 90
        0
 91
        0
 92
      512
 93
        0
300

 40
0.0
140
1.0
 94
        5
 62
     0
340
55
144
0.25
309
CONTENTFORMAT_END
171
     0
 94
        0
309
TABLEFORMAT_END
  1
CELLSTYLE_BEGIN
 90
        1
 91
        1
300
_TITLE
309
CELLSTYLE_END
300
CELLSTYLE
  1
TABLEFORMAT_BEGIN
 90
        5
170
     1
 91
        0
 92
        0
 62
   257
 93
        1
300
CONTENTFORMAT
  1
CONTENTFORMAT_BEGIN
 90
        0
 91
        0
 92
      512
 93
        0
300

 40
0.0
140
1.0
 94
        5
 62
     0
340
55
144
0.18
309
CONTENTFORMAT_END
171
     0
 94
        0
309
TABLEFORMAT_END
  1
CELLSTYLE_BEGIN
 90
        2
 91
        1
300
_HEADER
309
CELLSTYLE_END
300
CELLSTYLE
  1
TABLEFORMAT_BEGIN
 90
        5
170
     1
 91
        0
 92
        0
 62
   257
 93
        1
300
CONTENTFORMAT
  1
CONTENTFORMAT_BEGIN
 90
        0
 91
        0
 92
      512
 93
        0
300

 40
0.0
140
1.0
 94
        2
 62
     0
340
55
144
0.18
309
CONTENTFORMAT_END
171
     0
 94
        0
309
TABLEFORMAT_END
  1
CELLSTYLE_BEGIN
 90
        3
 91
        2
300
_DATA
309
CELLSTYLE_END
  0
XRECORD
  5
231
102
{ACAD_REACTORS
330
1FB
102
}
330
1FB
100
AcDbXrecord
280
     1
102
ACAD_ROUNDTRIP_PRE2007_TABLESTYLE
 90
      512
 91
        0
  1

 92
      512
 93
        0
  2

 94
      512
 95
        0
  3

  0
XRECORD
  5
20C
102
{ACAD_REACTORS
330
20B
102
}
330
20B
100
AcDbXrecord
280
     1
102
RTVSPost2010Prop28
280
     1
102
RTVSPost2010PropOp28
 70
     1
102
RTVSPost2010Prop29
280
     1
102
RTVSPost2010PropOp29
 70
     1
102
RTVSPost2010Prop30
280
     0
102
RTVSPost2010PropOp30
 70
     1
102
RTVSPost2010Prop31
280
     0
102
RTVSPost2010PropOp31
 70
     1
102
RTVSPost2010Prop32
280
     0
102
RTVSPost2010PropOp32
 70
     1
102
RTVSPost2010Prop33
280
     0
102
RTVSPost2010PropOp33
 70
     1
102
RTVSPost2010Prop34
280
     0
102
RTVSPost2010PropOp34
 70
     1
102
RTVSPost2010Prop35
280
     0
102
RTVSPost2010PropOp35
 70
     1
102
RTVSPost2010Prop36
280
     0
102
RTVSPost2010PropOp36
 70
     1
102
RTVSPost2010Prop37
 90
       50
102
RTVSPost2010PropOp37
 70
     1
102
RTVSPost2010Prop38
140
0.0
102
RTVSPost2010PropOp38
 70
     1
102
RTVSPost2010Prop39
140
1.0
102
RTVSPost2010PropOp39
 70
     1
102
RTVSPost2010Prop40
 90
        0
102
RTVSPost2010PropOp40
 70
     1
102
RTVSPost2010Prop41ColorIndex
 90
       18
102
RTVSPost2010Prop41ColorRGB
 90
        0
102
RTVSPost2010PropOp41
 70
     1
102
RTVSPost2010Prop42
 90
       50
102
RTVSPost2010PropOp42
 70
     1
102
RTVSPost2010Prop43
 90
        3
102
RTVSPost2010PropOp43
 70
     1
102
RTVSPost2010Prop44ColorIndex
 90
        5
102
RTVSPost2010Prop44ColorRGB
 90
      255
102
RTVSPost2010PropOp44
 70
     1
102
RTVSPost2010Prop45
280
     0
102
RTVSPost2010PropOp45
 70
     1
102
RTVSPost2010Prop46
 90
       50
102
RTVSPost2010PropOp46
 70
     1
102
RTVSPost2010Prop47
 90
       50
102
RTVSPost2010PropOp47
 70
     1
102
RTVSPost2010Prop48
 90
       50
102
RTVSPost2010PropOp48
 70
     1
102
RTVSPost2010Prop49
280
     0
102
RTVSPost2010PropOp49
 70
     1
102
RTVSPost2010Prop50
 90
       50
102
RTVSPost2010PropOp50
 70
     1
102
RTVSPost2010Prop51ColorIndex
 90
      256
102
RTVSPost2010Prop51ColorRGB
 90
-16777216
102
RTVSPost2010PropOp51
 70
     0
102
RTVSPost2010Prop52
140
1.0
102
RTVSPost2010PropOp52
 70
     0
102
RTVSPost2010Prop53
 90
        2
102
RTVSPost2010PropOp53
 70
     1
102
RTVSPost2010Prop54
  1
strokes_ogs.tif
102
RTVSPost2010PropOp54
 70
     1
102
RTVSPost2010Prop55
280
     0
102
RTVSPost2010PropOp55
 70
     1
102
RTVSPost2010Prop56
140
1.0
102
RTVSPost2010PropOp56
 70
     1
102
RTVSPost2010Prop57
140
1.0
102
RTVSPost2010PropOp57
 70
     1
102
RTVSPropertyOp0
 70
     1
102
RTVSPropertyOp1
 70
     1
102
RTVSPropertyOp2
 70
     1
102
RTVSPropertyOp3
 70
     1
102
RTVSPropertyOp4
 70
     1
102
RTVSPropertyOp5
 70
     1
102
RTVSPropertyOp6
 70
     1
102
RTVSPropertyOp7
 70
     1
102
RTVSPropertyOp8
 70
     1
102
RTVSPropertyOp9
 70
     1
102
RTVSPropertyOp10
 70
     1
102
RTVSPropertyOp11
 70
     1
102
RTVSPropertyOp12
 70
     1
102
RTVSPropertyOp13
 70
     1
102
RTVSPropertyOp14
 70
     1
102
RTVSPropertyOp15
 70
     1
102
RTVSPropertyOp16
 70
     1
102
RTVSPropertyOp17
 70
     1
102
RTVSPropertyOp18
 70
     1
102
RTVSPropertyOp19
 70
     1
102
RTVSPropertyOp20
 70
     1
102
RTVSPropertyOp21
 70
     1
102
RTVSPropertyOp22
 70
     1
102
RTVSPropertyOp23
 70
     1
102
RTVSPropertyOp24
 70
     1
102
RTVSPropertyOp25
 70
     1
102
RTVSPropertyOp26
 70
     1
102
RTVSPropertyOp27
 70
     1
102
RTVSPropertyOp28
 70
     1
102
RTVSPropertyOp29
 70
     1
102
RTVSPropertyOp30
 70
     1
102
RTVSPropertyOp31
 70
     1
102
RTVSPropertyOp32
 70
     1
102
RTVSPropertyOp33
 70
     1
102
RTVSPropertyOp34
 70
     1
102
RTVSPropertyOp35
 70
     1
102
RTVSPropertyOp36
 70
     1
102
RTVSPropertyOp37
 70
     1
102
RTVSPropertyOp38
 70
     1
102
RTVSPropertyOp39
 70
     1
102
RTVSPropertyOp40
 70
     1
102
RTVSPropertyOp41
 70
     1
102
RTVSPropertyOp42
 70
     1
102
RTVSPropertyOp43
 70
     1
102
RTVSPropertyOp44
 70
     1
102
RTVSPropertyOp45
 70
     1
102
RTVSPropertyOp46
 70
     1
102
RTVSPropertyOp47
 70
     1
102
RTVSPropertyOp48
 70
     1
102
RTVSPropertyOp49
 70
     1
102
RTVSPropertyOp50
 70
     1
102
RTVSPropertyOp51
 70
     0
102
RTVSPropertyOp52
 70
     0
102
RTVSPropertyOp53
 70
     1
102
RTVSPropertyOp54
 70
     1
102
RTVSPropertyOp55
 70
     1
102
RTVSPropertyOp56
 70
     1
102
RTVSPropertyOp57
 70
     1
102
RTVSPropertyOp58
 70
     1
102
RTVSPropertyOp59
 70
     1
102
RTVSPropertyOp60
 70
     1
102
RTVSPropertyOp61
 70
     1
102
RTVSPropertyOp62
 70
     1
  0
XRECORD
  5
20A
102
{ACAD_REACTORS
330
209
102
}
330
209
100
AcDbXrecord
280
     1
102
RTVSPost2010Prop28
280
     0
102
RTVSPost2010PropOp28
 70
     1
102
RTVSPost2010Prop29
280
     1
102
RTVSPost2010PropOp29
 70
     1
102
RTVSPost2010Prop30
280
     1
102
RTVSPost2010PropOp30
 70
     1
102
RTVSPost2010Prop31
280
     0
102
RTVSPost2010PropOp31
 70
     1
102
RTVSPost2010Prop32
280
     0
102
RTVSPost2010PropOp32
 70
     1
102
RTVSPost2010Prop33
280
     0
102
RTVSPost2010PropOp33
 70
     1
102
RTVSPost2010Prop34
280
     0
102
RTVSPost2010PropOp34
 70
     1
102
RTVSPost2010Prop35
280
     0
102
RTVSPost2010PropOp35
 70
     1
102
RTVSPost2010Prop36
280
     0
102
RTVSPost2010PropOp36
 70
     1
102
RTVSPost2010Prop37
 90
       50
102
RTVSPost2010PropOp37
 70
     1
102
RTVSPost2010Prop38
140
0.0
102
RTVSPost2010PropOp38
 70
     1
102
RTVSPost2010Prop39
140
1.0
102
RTVSPost2010PropOp39
 70
     1
102
RTVSPost2010Prop40
 90
        0
102
RTVSPost2010PropOp40
 70
     1
102
RTVSPost2010Prop41ColorIndex
 90
       18
102
RTVSPost2010Prop41ColorRGB
 90
        0
102
RTVSPost2010PropOp41
 70
     1
102
RTVSPost2010Prop42
 90
       50
102
RTVSPost2010PropOp42
 70
     1
102
RTVSPost2010Prop43
 90
        3
102
RTVSPost2010PropOp43
 70
     1
102
RTVSPost2010Prop44ColorIndex
 90
        5
102
RTVSPost2010Prop44ColorRGB
 90
      255
102
RTVSPost2010PropOp44
 70
     1
102
RTVSPost2010Prop45
280
     0
102
RTVSPost2010PropOp45
 70
     1
102
RTVSPost2010Prop46
 90
       50
102
RTVSPost2010PropOp46
 70
     1
102
RTVSPost2010Prop47
 90
       50
102
RTVSPost2010PropOp47
 70
     1
102
RTVSPost2010Prop48
 90
       50
102
RTVSPost2010PropOp48
 70
     1
102
RTVSPost2010Prop49
280
     0
102
RTVSPost2010PropOp49
 70
     1
102
RTVSPost2010Prop50
 90
       50
102
RTVSPost2010PropOp50
 70
     1
102
RTVSPost2010Prop51ColorIndex
 90
      256
102
RTVSPost2010Prop51ColorRGB
 90
-16777216
102
RTVSPost2010PropOp51
 70
     0
102
RTVSPost2010Prop52
140
1.0
102
RTVSPost2010PropOp52
 70
     0
102
RTVSPost2010Prop53
 90
        2
102
RTVSPost2010PropOp53
 70
     1
102
RTVSPost2010Prop54
  1
strokes_ogs.tif
102
RTVSPost2010PropOp54
 70
     1
102
RTVSPost2010Prop55
280
     0
102
RTVSPost2010PropOp55
 70
     1
102
RTVSPost2010Prop56
140
1.0
102
RTVSPost2010PropOp56
 70
     1
102
RTVSPost2010Prop57
140
1.0
102
RTVSPost2010PropOp57
 70
     1
102
RTVSPropertyOp0
 70
     1
102
RTVSPropertyOp1
 70
     1
102
RTVSPropertyOp2
 70
     1
102
RTVSPropertyOp3
 70
     1
102
RTVSPropertyOp4
 70
     1
102
RTVSPropertyOp5
 70
     1
102
RTVSPropertyOp6
 70
     1
102
RTVSPropertyOp7
 70
     1
102
RTVSPropertyOp8
 70
     1
102
RTVSPropertyOp9
 70
     1
102
RTVSPropertyOp10
 70
     1
102
RTVSPropertyOp11
 70
     1
102
RTVSPropertyOp12
 70
     1
102
RTVSPropertyOp13
 70
     1
102
RTVSPropertyOp14
 70
     1
102
RTVSPropertyOp15
 70
     1
102
RTVSPropertyOp16
 70
     1
102
RTVSPropertyOp17
 70
     1
102
RTVSPropertyOp18
 70
     1
102
RTVSPropertyOp19
 70
     1
102
RTVSPropertyOp20
 70
     1
102
RTVSPropertyOp21
 70
     1
102
RTVSPropertyOp22
 70
     1
102
RTVSPropertyOp23
 70
     1
102
RTVSPropertyOp24
 70
     1
102
RTVSPropertyOp25
 70
     1
102
RTVSPropertyOp26
 70
     1
102
RTVSPropertyOp27
 70
     1
102
RTVSPropertyOp28
 70
     1
102
RTVSPropertyOp29
 70
     1
102
RTVSPropertyOp30
 70
     1
102
RTVSPropertyOp31
 70
     1
102
RTVSPropertyOp32
 70
     1
102
RTVSPropertyOp33
 70
     1
102
RTVSPropertyOp34
 70
     1
102
RTVSPropertyOp35
 70
     1
102
RTVSPropertyOp36
 70
     1
102
RTVSPropertyOp37
 70
     1
102
RTVSPropertyOp38
 70
     1
102
RTVSPropertyOp39
 70
     1
102
RTVSPropertyOp40
 70
     1
102
RTVSPropertyOp41
 70
     1
102
RTVSPropertyOp42
 70
     1
102
RTVSPropertyOp43
 70
     1
102
RTVSPropertyOp44
 70
     1
102
RTVSPropertyOp45
 70
     1
102
RTVSPropertyOp46
 70
     1
102
RTVSPropertyOp47
 70
     1
102
RTVSPropertyOp48
 70
     1
102
RTVSPropertyOp49
 70
     1
102
RTVSPropertyOp50
 70
     1
102
RTVSPropertyOp51
 70
     0
102
RTVSPropertyOp52
 70
     0
102
RTVSPropertyOp53
 70
     1
102
RTVSPropertyOp54
 70
     1
102
RTVSPropertyOp55
 70
     1
102
RTVSPropertyOp56
 70
     1
102
RTVSPropertyOp57
 70
     1
102
RTVSPropertyOp58
 70
     1
102
RTVSPropertyOp59
 70
     1
102
RTVSPropertyOp60
 70
     1
102
RTVSPropertyOp61
 70
     1
102
RTVSPropertyOp62
 70
     1
  0
XRECORD
  5
218
102
{ACAD_REACTORS
330
217
102
}
330
217
100
AcDbXrecord
280
     1
102
RTVSPost2010Prop28
280
     0
102
RTVSPost2010PropOp28
 70
     1
102
RTVSPost2010Prop29
280
     1
102
RTVSPost2010PropOp29
 70
     1
102
RTVSPost2010Prop30
280
     1
102
RTVSPost2010PropOp30
 70
     1
102
RTVSPost2010Prop31
280
     0
102
RTVSPost2010PropOp31
 70
     1
102
RTVSPost2010Prop32
280
     0
102
RTVSPost2010PropOp32
 70
     1
102
RTVSPost2010Prop33
280
     0
102
RTVSPost2010PropOp33
 70
     1
102
RTVSPost2010Prop34
280
     0
102
RTVSPost2010PropOp34
 70
     1
102
RTVSPost2010Prop35
280
     0
102
RTVSPost2010PropOp35
 70
     1
102
RTVSPost2010Prop36
280
     0
102
RTVSPost2010PropOp36
 70
     1
102
RTVSPost2010Prop37
 90
       50
102
RTVSPost2010PropOp37
 70
     1
102
RTVSPost2010Prop38
140
0.0
102
RTVSPost2010PropOp38
 70
     1
102
RTVSPost2010Prop39
140
1.0
102
RTVSPost2010PropOp39
 70
     1
102
RTVSPost2010Prop40
 90
        0
102
RTVSPost2010PropOp40
 70
     1
102
RTVSPost2010Prop41ColorIndex
 90
       18
102
RTVSPost2010Prop41ColorRGB
 90
        0
102
RTVSPost2010PropOp41
 70
     1
102
RTVSPost2010Prop42
 90
       50
102
RTVSPost2010PropOp42
 70
     1
102
RTVSPost2010Prop43
 90
        3
102
RTVSPost2010PropOp43
 70
     1
102
RTVSPost2010Prop44ColorIndex
 90
        5
102
RTVSPost2010Prop44ColorRGB
 90
      255
102
RTVSPost2010PropOp44
 70
     1
102
RTVSPost2010Prop45
280
     0
102
RTVSPost2010PropOp45
 70
     1
102
RTVSPost2010Prop46
 90
       50
102
RTVSPost2010PropOp46
 70
     1
102
RTVSPost2010Prop47
 90
       50
102
RTVSPost2010PropOp47
 70
     1
102
RTVSPost2010Prop48
 90
       50
102
RTVSPost2010PropOp48
 70
     1
102
RTVSPost2010Prop49
280
     0
102
RTVSPost2010PropOp49
 70
     1
102
RTVSPost2010Prop50
 90
       50
102
RTVSPost2010PropOp50
 70
     1
102
RTVSPost2010Prop51ColorIndex
 90
      256
102
RTVSPost2010Prop51ColorRGB
 90
-16777216
102
RTVSPost2010PropOp51
 70
     0
102
RTVSPost2010Prop52
140
1.0
102
RTVSPost2010PropOp52
 70
     0
102
RTVSPost2010Prop53
 90
        2
102
RTVSPost2010PropOp53
 70
     1
102
RTVSPost2010Prop54
  1
strokes_ogs.tif
102
RTVSPost2010PropOp54
 70
     1
102
RTVSPost2010Prop55
280
     0
102
RTVSPost2010PropOp55
 70
     1
102
RTVSPost2010Prop56
140
1.0
102
RTVSPost2010PropOp56
 70
     1
102
RTVSPost2010Prop57
140
1.0
102
RTVSPost2010PropOp57
 70
     1
102
RTVSPropertyOp0
 70
     1
102
RTVSPropertyOp1
 70
     1
102
RTVSPropertyOp2
 70
     1
102
RTVSPropertyOp3
 70
     1
102
RTVSPropertyOp4
 70
     1
102
RTVSPropertyOp5
 70
     1
102
RTVSPropertyOp6
 70
     1
102
RTVSPropertyOp7
 70
     1
102
RTVSPropertyOp8
 70
     1
102
RTVSPropertyOp9
 70
     1
102
RTVSPropertyOp10
 70
     1
102
RTVSPropertyOp11
 70
     1
102
RTVSPropertyOp12
 70
     1
102
RTVSPropertyOp13
 70
     1
102
RTVSPropertyOp14
 70
     1
102
RTVSPropertyOp15
 70
     1
102
RTVSPropertyOp16
 70
     1
102
RTVSPropertyOp17
 70
     1
102
RTVSPropertyOp18
 70
     1
102
RTVSPropertyOp19
 70
     1
102
RTVSPropertyOp20
 70
     1
102
RTVSPropertyOp21
 70
     1
102
RTVSPropertyOp22
 70
     1
102
RTVSPropertyOp23
 70
     1
102
RTVSPropertyOp24
 70
     1
102
RTVSPropertyOp25
 70
     1
102
RTVSPropertyOp26
 70
     1
102
RTVSPropertyOp27
 70
     1
102
RTVSPropertyOp28
 70
     1
102
RTVSPropertyOp29
 70
     1
102
RTVSPropertyOp30
 70
     1
102
RTVSPropertyOp31
 70
     1
102
RTVSPropertyOp32
 70
     1
102
RTVSPropertyOp33
 70
     1
102
RTVSPropertyOp34
 70
     1
102
RTVSPropertyOp35
 70
     1
102
RTVSPropertyOp36
 70
     1
102
RTVSPropertyOp37
 70
     1
102
RTVSPropertyOp38
 70
     1
102
RTVSPropertyOp39
 70
     1
102
RTVSPropertyOp40
 70
     1
102
RTVSPropertyOp41
 70
     1
102
RTVSPropertyOp42
 70
     1
102
RTVSPropertyOp43
 70
     1
102
RTVSPropertyOp44
 70
     1
102
RTVSPropertyOp45
 70
     1
102
RTVSPropertyOp46
 70
     1
102
RTVSPropertyOp47
 70
     1
102
RTVSPropertyOp48
 70
     1
102
RTVSPropertyOp49
 70
     1
102
RTVSPropertyOp50
 70
     1
102
RTVSPropertyOp51
 70
     0
102
RTVSPropertyOp52
 70
     0
102
RTVSPropertyOp53
 70
     1
102
RTVSPropertyOp54
 70
     1
102
RTVSPropertyOp55
 70
     1
102
RTVSPropertyOp56
 70
     1
102
RTVSPropertyOp57
 70
     1
102
RTVSPropertyOp58
 70
     1
102
RTVSPropertyOp59
 70
     1
102
RTVSPropertyOp60
 70
     1
102
RTVSPropertyOp61
 70
     1
102
RTVSPropertyOp62
 70
     1
  0
XRECORD
  5
220
102
{ACAD_REACTORS
330
21F
102
}
330
21F
100
AcDbXrecord
280
     1
102
RTVSPost2010Prop28
280
     0
102
RTVSPost2010PropOp28
 70
     1
102
RTVSPost2010Prop29
280
     1
102
RTVSPost2010PropOp29
 70
     1
102
RTVSPost2010Prop30
280
     1
102
RTVSPost2010PropOp30
 70
     1
102
RTVSPost2010Prop31
280
     0
102
RTVSPost2010PropOp31
 70
     1
102
RTVSPost2010Prop32
280
     0
102
RTVSPost2010PropOp32
 70
     1
102
RTVSPost2010Prop33
280
     0
102
RTVSPost2010PropOp33
 70
     1
102
RTVSPost2010Prop34
280
     0
102
RTVSPost2010PropOp34
 70
     1
102
RTVSPost2010Prop35
280
     0
102
RTVSPost2010PropOp35
 70
     1
102
RTVSPost2010Prop36
280
     0
102
RTVSPost2010PropOp36
 70
     1
102
RTVSPost2010Prop37
 90
       50
102
RTVSPost2010PropOp37
 70
     1
102
RTVSPost2010Prop38
140
0.0
102
RTVSPost2010PropOp38
 70
     1
102
RTVSPost2010Prop39
140
1.0
102
RTVSPost2010PropOp39
 70
     1
102
RTVSPost2010Prop40
 90
        0
102
RTVSPost2010PropOp40
 70
     1
102
RTVSPost2010Prop41ColorIndex
 90
       18
102
RTVSPost2010Prop41ColorRGB
 90
        0
102
RTVSPost2010PropOp41
 70
     1
102
RTVSPost2010Prop42
 90
       50
102
RTVSPost2010PropOp42
 70
     1
102
RTVSPost2010Prop43
 90
        3
102
RTVSPost2010PropOp43
 70
     1
102
RTVSPost2010Prop44ColorIndex
 90
        5
102
RTVSPost2010Prop44ColorRGB
 90
      255
102
RTVSPost2010PropOp44
 70
     1
102
RTVSPost2010Prop45
280
     0
102
RTVSPost2010PropOp45
 70
     1
102
RTVSPost2010Prop46
 90
       50
102
RTVSPost2010PropOp46
 70
     1
102
RTVSPost2010Prop47
 90
       50
102
RTVSPost2010PropOp47
 70
     1
102
RTVSPost2010Prop48
 90
       50
102
RTVSPost2010PropOp48
 70
     1
102
RTVSPost2010Prop49
280
     0
102
RTVSPost2010PropOp49
 70
     1
102
RTVSPost2010Prop50
 90
       50
102
RTVSPost2010PropOp50
 70
     1
102
RTVSPost2010Prop51ColorIndex
 90
      256
102
RTVSPost2010Prop51ColorRGB
 90
-16777216
102
RTVSPost2010PropOp51
 70
     0
102
RTVSPost2010Prop52
140
1.0
102
RTVSPost2010PropOp52
 70
     0
102
RTVSPost2010Prop53
 90
        2
102
RTVSPost2010PropOp53
 70
     1
102
RTVSPost2010Prop54
  1
strokes_ogs.tif
102
RTVSPost2010PropOp54
 70
     1
102
RTVSPost2010Prop55
280
     0
102
RTVSPost2010PropOp55
 70
     1
102
RTVSPost2010Prop56
140
1.0
102
RTVSPost2010PropOp56
 70
     1
102
RTVSPost2010Prop57
140
1.0
102
RTVSPost2010PropOp57
 70
     1
102
RTVSPropertyOp0
 70
     1
102
RTVSPropertyOp1
 70
     1
102
RTVSPropertyOp2
 70
     1
102
RTVSPropertyOp3
 70
     1
102
RTVSPropertyOp4
 70
     1
102
RTVSPropertyOp5
 70
     1
102
RTVSPropertyOp6
 70
     1
102
RTVSPropertyOp7
 70
     1
102
RTVSPropertyOp8
 70
     1
102
RTVSPropertyOp9
 70
     1
102
RTVSPropertyOp10
 70
     1
102
RTVSPropertyOp11
 70
     1
102
RTVSPropertyOp12
 70
     1
102
RTVSPropertyOp13
 70
     1
102
RTVSPropertyOp14
 70
     1
102
RTVSPropertyOp15
 70
     1
102
RTVSPropertyOp16
 70
     1
102
RTVSPropertyOp17
 70
     1
102
RTVSPropertyOp18
 70
     1
102
RTVSPropertyOp19
 70
     1
102
RTVSPropertyOp20
 70
     1
102
RTVSPropertyOp21
 70
     1
102
RTVSPropertyOp22
 70
     1
102
RTVSPropertyOp23
 70
     1
102
RTVSPropertyOp24
 70
     1
102
RTVSPropertyOp25
 70
     1
102
RTVSPropertyOp26
 70
     1
102
RTVSPropertyOp27
 70
     1
102
RTVSPropertyOp28
 70
     1
102
RTVSPropertyOp29
 70
     1
102
RTVSPropertyOp30
 70
     1
102
RTVSPropertyOp31
 70
     1
102
RTVSPropertyOp32
 70
     1
102
RTVSPropertyOp33
 70
     1
102
RTVSPropertyOp34
 70
     1
102
RTVSPropertyOp35
 70
     1
102
RTVSPropertyOp36
 70
     1
102
RTVSPropertyOp37
 70
     1
102
RTVSPropertyOp38
 70
     1
102
RTVSPropertyOp39
 70
     1
102
RTVSPropertyOp40
 70
     1
102
RTVSPropertyOp41
 70
     1
102
RTVSPropertyOp42
 70
     1
102
RTVSPropertyOp43
 70
     1
102
RTVSPropertyOp44
 70
     1
102
RTVSPropertyOp45
 70
     1
102
RTVSPropertyOp46
 70
     1
102
RTVSPropertyOp47
 70
     1
102
RTVSPropertyOp48
 70
     1
102
RTVSPropertyOp49
 70
     1
102
RTVSPropertyOp50
 70
     1
102
RTVSPropertyOp51
 70
     0
102
RTVSPropertyOp52
 70
     0
102
RTVSPropertyOp53
 70
     1
102
RTVSPropertyOp54
 70
     1
102
RTVSPropertyOp55
 70
     1
102
RTVSPropertyOp56
 70
     1
102
RTVSPropertyOp57
 70
     1
102
RTVSPropertyOp58
 70
     1
102
RTVSPropertyOp59
 70
     1
102
RTVSPropertyOp60
 70
     1
102
RTVSPropertyOp61
 70
     1
102
RTVSPropertyOp62
 70
     1
  0
XRECORD
  5
212
102
{ACAD_REACTORS
330
211
102
}
330
211
100
AcDbXrecord
280
     1
102
RTVSPost2010Prop28
280
     0
102
RTVSPost2010PropOp28
 70
     1
102
RTVSPost2010Prop29
280
     1
102
RTVSPost2010PropOp29
 70
     1
102
RTVSPost2010Prop30
280
     1
102
RTVSPost2010PropOp30
 70
     1
102
RTVSPost2010Prop31
280
     0
102
RTVSPost2010PropOp31
 70
     1
102
RTVSPost2010Prop32
280
     0
102
RTVSPost2010PropOp32
 70
     1
102
RTVSPost2010Prop33
280
     0
102
RTVSPost2010PropOp33
 70
     1
102
RTVSPost2010Prop34
280
     0
102
RTVSPost2010PropOp34
 70
     1
102
RTVSPost2010Prop35
280
     0
102
RTVSPost2010PropOp35
 70
     1
102
RTVSPost2010Prop36
280
     0
102
RTVSPost2010PropOp36
 70
     1
102
RTVSPost2010Prop37
 90
       50
102
RTVSPost2010PropOp37
 70
     1
102
RTVSPost2010Prop38
140
0.0
102
RTVSPost2010PropOp38
 70
     1
102
RTVSPost2010Prop39
140
1.0
102
RTVSPost2010PropOp39
 70
     1
102
RTVSPost2010Prop40
 90
        0
102
RTVSPost2010PropOp40
 70
     1
102
RTVSPost2010Prop41ColorIndex
 90
       18
102
RTVSPost2010Prop41ColorRGB
 90
        0
102
RTVSPost2010PropOp41
 70
     1
102
RTVSPost2010Prop42
 90
       50
102
RTVSPost2010PropOp42
 70
     1
102
RTVSPost2010Prop43
 90
        3
102
RTVSPost2010PropOp43
 70
     1
102
RTVSPost2010Prop44ColorIndex
 90
        5
102
RTVSPost2010Prop44ColorRGB
 90
      255
102
RTVSPost2010PropOp44
 70
     1
102
RTVSPost2010Prop45
280
     0
102
RTVSPost2010PropOp45
 70
     1
102
RTVSPost2010Prop46
 90
       50
102
RTVSPost2010PropOp46
 70
     1
102
RTVSPost2010Prop47
 90
       50
102
RTVSPost2010PropOp47
 70
     1
102
RTVSPost2010Prop48
 90
       50
102
RTVSPost2010PropOp48
 70
     1
102
RTVSPost2010Prop49
280
     0
102
RTVSPost2010PropOp49
 70
     1
102
RTVSPost2010Prop50
 90
       50
102
RTVSPost2010PropOp50
 70
     1
102
RTVSPost2010Prop51ColorIndex
 90
      256
102
RTVSPost2010Prop51ColorRGB
 90
-16777216
102
RTVSPost2010PropOp51
 70
     0
102
RTVSPost2010Prop52
140
1.0
102
RTVSPost2010PropOp52
 70
     0
102
RTVSPost2010Prop53
 90
        2
102
RTVSPost2010PropOp53
 70
     1
102
RTVSPost2010Prop54
  1
strokes_ogs.tif
102
RTVSPost2010PropOp54
 70
     1
102
RTVSPost2010Prop55
280
     0
102
RTVSPost2010PropOp55
 70
     1
102
RTVSPost2010Prop56
140
1.0
102
RTVSPost2010PropOp56
 70
     1
102
RTVSPost2010Prop57
140
1.0
102
RTVSPost2010PropOp57
 70
     1
102
RTVSPropertyOp0
 70
     1
102
RTVSPropertyOp1
 70
     1
102
RTVSPropertyOp2
 70
     1
102
RTVSPropertyOp3
 70
     1
102
RTVSPropertyOp4
 70
     1
102
RTVSPropertyOp5
 70
     1
102
RTVSPropertyOp6
 70
     1
102
RTVSPropertyOp7
 70
     1
102
RTVSPropertyOp8
 70
     1
102
RTVSPropertyOp9
 70
     1
102
RTVSPropertyOp10
 70
     1
102
RTVSPropertyOp11
 70
     1
102
RTVSPropertyOp12
 70
     1
102
RTVSPropertyOp13
 70
     1
102
RTVSPropertyOp14
 70
     1
102
RTVSPropertyOp15
 70
     1
102
RTVSPropertyOp16
 70
     1
102
RTVSPropertyOp17
 70
     1
102
RTVSPropertyOp18
 70
     1
102
RTVSPropertyOp19
 70
     1
102
RTVSPropertyOp20
 70
     1
102
RTVSPropertyOp21
 70
     1
102
RTVSPropertyOp22
 70
     1
102
RTVSPropertyOp23
 70
     1
102
RTVSPropertyOp24
 70
     1
102
RTVSPropertyOp25
 70
     1
102
RTVSPropertyOp26
 70
     1
102
RTVSPropertyOp27
 70
     1
102
RTVSPropertyOp28
 70
     1
102
RTVSPropertyOp29
 70
     1
102
RTVSPropertyOp30
 70
     1
102
RTVSPropertyOp31
 70
     1
102
RTVSPropertyOp32
 70
     1
102
RTVSPropertyOp33
 70
     1
102
RTVSPropertyOp34
 70
     1
102
RTVSPropertyOp35
 70
     1
102
RTVSPropertyOp36
 70
     1
102
RTVSPropertyOp37
 70
     1
102
RTVSPropertyOp38
 70
     1
102
RTVSPropertyOp39
 70
     1
102
RTVSPropertyOp40
 70
     1
102
RTVSPropertyOp41
 70
     1
102
RTVSPropertyOp42
 70
     1
102
RTVSPropertyOp43
 70
     1
102
RTVSPropertyOp44
 70
     1
102
RTVSPropertyOp45
 70
     1
102
RTVSPropertyOp46
 70
     1
102
RTVSPropertyOp47
 70
     1
102
RTVSPropertyOp48
 70
     1
102
RTVSPropertyOp49
 70
     1
102
RTVSPropertyOp50
 70
     1
102
RTVSPropertyOp51
 70
     0
102
RTVSPropertyOp52
 70
     0
102
RTVSPropertyOp53
 70
     1
102
RTVSPropertyOp54
 70
     1
102
RTVSPropertyOp55
 70
     1
102
RTVSPropertyOp56
 70
     1
102
RTVSPropertyOp57
 70
     1
102
RTVSPropertyOp58
 70
     1
102
RTVSPropertyOp59
 70
     1
102
RTVSPropertyOp60
 70
     1
102
RTVSPropertyOp61
 70
     1
102
RTVSPropertyOp62
 70
     1
  0
XRECORD
  5
216
102
{ACAD_REACTORS
330
215
102
}
330
215
100
AcDbXrecord
280
     1
102
RTVSPost2010Prop28
280
     0
102
RTVSPost2010PropOp28
 70
     1
102
RTVSPost2010Prop29
280
     1
102
RTVSPost2010PropOp29
 70
     1
102
RTVSPost2010Prop30
280
     1
102
RTVSPost2010PropOp30
 70
     1
102
RTVSPost2010Prop31
280
     0
102
RTVSPost2010PropOp31
 70
     1
102
RTVSPost2010Prop32
280
     0
102
RTVSPost2010PropOp32
 70
     1
102
RTVSPost2010Prop33
280
     0
102
RTVSPost2010PropOp33
 70
     1
102
RTVSPost2010Prop34
280
     0
102
RTVSPost2010PropOp34
 70
     1
102
RTVSPost2010Prop35
280
     0
102
RTVSPost2010PropOp35
 70
     1
102
RTVSPost2010Prop36
280
     0
102
RTVSPost2010PropOp36
 70
     1
102
RTVSPost2010Prop37
 90
       50
102
RTVSPost2010PropOp37
 70
     1
102
RTVSPost2010Prop38
140
0.0
102
RTVSPost2010PropOp38
 70
     1
102
RTVSPost2010Prop39
140
1.0
102
RTVSPost2010PropOp39
 70
     1
102
RTVSPost2010Prop40
 90
        0
102
RTVSPost2010PropOp40
 70
     1
102
RTVSPost2010Prop41ColorIndex
 90
       18
102
RTVSPost2010Prop41ColorRGB
 90
        0
102
RTVSPost2010PropOp41
 70
     1
102
RTVSPost2010Prop42
 90
       50
102
RTVSPost2010PropOp42
 70
     1
102
RTVSPost2010Prop43
 90
        3
102
RTVSPost2010PropOp43
 70
     1
102
RTVSPost2010Prop44ColorIndex
 90
        5
102
RTVSPost2010Prop44ColorRGB
 90
      255
102
RTVSPost2010PropOp44
 70
     1
102
RTVSPost2010Prop45
280
     0
102
RTVSPost2010PropOp45
 70
     1
102
RTVSPost2010Prop46
 90
       50
102
RTVSPost2010PropOp46
 70
     1
102
RTVSPost2010Prop47
 90
       50
102
RTVSPost2010PropOp47
 70
     1
102
RTVSPost2010Prop48
 90
       50
102
RTVSPost2010PropOp48
 70
     1
102
RTVSPost2010Prop49
280
     0
102
RTVSPost2010PropOp49
 70
     1
102
RTVSPost2010Prop50
 90
       50
102
RTVSPost2010PropOp50
 70
     1
102
RTVSPost2010Prop51ColorIndex
 90
      256
102
RTVSPost2010Prop51ColorRGB
 90
-16777216
102
RTVSPost2010PropOp51
 70
     0
102
RTVSPost2010Prop52
140
1.0
102
RTVSPost2010PropOp52
 70
     0
102
RTVSPost2010Prop53
 90
        2
102
RTVSPost2010PropOp53
 70
     1
102
RTVSPost2010Prop54
  1
strokes_ogs.tif
102
RTVSPost2010PropOp54
 70
     1
102
RTVSPost2010Prop55
280
     0
102
RTVSPost2010PropOp55
 70
     1
102
RTVSPost2010Prop56
140
1.0
102
RTVSPost2010PropOp56
 70
     1
102
RTVSPost2010Prop57
140
1.0
102
RTVSPost2010PropOp57
 70
     1
102
RTVSPropertyOp0
 70
     1
102
RTVSPropertyOp1
 70
     1
102
RTVSPropertyOp2
 70
     1
102
RTVSPropertyOp3
 70
     1
102
RTVSPropertyOp4
 70
     1
102
RTVSPropertyOp5
 70
     1
102
RTVSPropertyOp6
 70
     1
102
RTVSPropertyOp7
 70
     1
102
RTVSPropertyOp8
 70
     1
102
RTVSPropertyOp9
 70
     1
102
RTVSPropertyOp10
 70
     1
102
RTVSPropertyOp11
 70
     1
102
RTVSPropertyOp12
 70
     1
102
RTVSPropertyOp13
 70
     1
102
RTVSPropertyOp14
 70
     1
102
RTVSPropertyOp15
 70
     1
102
RTVSPropertyOp16
 70
     1
102
RTVSPropertyOp17
 70
     1
102
RTVSPropertyOp18
 70
     1
102
RTVSPropertyOp19
 70
     1
102
RTVSPropertyOp20
 70
     1
102
RTVSPropertyOp21
 70
     1
102
RTVSPropertyOp22
 70
     1
102
RTVSPropertyOp23
 70
     1
102
RTVSPropertyOp24
 70
     1
102
RTVSPropertyOp25
 70
     1
102
RTVSPropertyOp26
 70
     1
102
RTVSPropertyOp27
 70
     1
102
RTVSPropertyOp28
 70
     1
102
RTVSPropertyOp29
 70
     1
102
RTVSPropertyOp30
 70
     1
102
RTVSPropertyOp31
 70
     1
102
RTVSPropertyOp32
 70
     1
102
RTVSPropertyOp33
 70
     1
102
RTVSPropertyOp34
 70
     1
102
RTVSPropertyOp35
 70
     1
102
RTVSPropertyOp36
 70
     1
102
RTVSPropertyOp37
 70
     1
102
RTVSPropertyOp38
 70
     1
102
RTVSPropertyOp39
 70
     1
102
RTVSPropertyOp40
 70
     1
102
RTVSPropertyOp41
 70
     1
102
RTVSPropertyOp42
 70
     1
102
RTVSPropertyOp43
 70
     1
102
RTVSPropertyOp44
 70
     1
102
RTVSPropertyOp45
 70
     1
102
RTVSPropertyOp46
 70
     1
102
RTVSPropertyOp47
 70
     1
102
RTVSPropertyOp48
 70
     1
102
RTVSPropertyOp49
 70
     1
102
RTVSPropertyOp50
 70
     1
102
RTVSPropertyOp51
 70
     0
102
RTVSPropertyOp52
 70
     0
102
RTVSPropertyOp53
 70
     1
102
RTVSPropertyOp54
 70
     1
102
RTVSPropertyOp55
 70
     1
102
RTVSPropertyOp56
 70
     1
102
RTVSPropertyOp57
 70
     1
102
RTVSPropertyOp58
 70
     1
102
RTVSPropertyOp59
 70
     1
102
RTVSPropertyOp60
 70
     1
102
RTVSPropertyOp61
 70
     1
102
RTVSPropertyOp62
 70
     1
  0
XRECORD
  5
230
102
{ACAD_REACTORS
330
22F
102
}
330
22F
100
AcDbXrecord
280
     1
102
RTVSPost2010Prop28
280
     0
102
RTVSPost2010PropOp28
 70
     0
102
RTVSPost2010Prop29
280
     1
102
RTVSPost2010PropOp29
 70
     0
102
RTVSPost2010Prop30
280
     1
102
RTVSPost2010PropOp30
 70
     0
102
RTVSPost2010Prop31
280
     0
102
RTVSPost2010PropOp31
 70
     0
102
RTVSPost2010Prop32
280
     0
102
RTVSPost2010PropOp32
 70
     0
102
RTVSPost2010Prop33
280
     0
102
RTVSPost2010PropOp33
 70
     0
102
RTVSPost2010Prop34
280
     0
102
RTVSPost2010PropOp34
 70
     0
102
RTVSPost2010Prop35
280
     0
102
RTVSPost2010PropOp35
 70
     0
102
RTVSPost2010Prop36
280
     0
102
RTVSPost2010PropOp36
 70
     0
102
RTVSPost2010Prop37
 90
       50
102
RTVSPost2010PropOp37
 70
     0
102
RTVSPost2010Prop38
140
0.0
102
RTVSPost2010PropOp38
 70
     0
102
RTVSPost2010Prop39
140
1.0
102
RTVSPost2010PropOp39
 70
     0
102
RTVSPost2010Prop40
 90
        0
102
RTVSPost2010PropOp40
 70
     0
102
RTVSPost2010Prop41ColorIndex
 90
       18
102
RTVSPost2010Prop41ColorRGB
 90
        0
102
RTVSPost2010PropOp41
 70
     0
102
RTVSPost2010Prop42
 90
       50
102
RTVSPost2010PropOp42
 70
     0
102
RTVSPost2010Prop43
 90
        3
102
RTVSPost2010PropOp43
 70
     0
102
RTVSPost2010Prop44ColorIndex
 90
        5
102
RTVSPost2010Prop44ColorRGB
 90
      255
102
RTVSPost2010PropOp44
 70
     0
102
RTVSPost2010Prop45
280
     0
102
RTVSPost2010PropOp45
 70
     0
102
RTVSPost2010Prop46
 90
       50
102
RTVSPost2010PropOp46
 70
     0
102
RTVSPost2010Prop47
 90
       50
102
RTVSPost2010PropOp47
 70
     0
102
RTVSPost2010Prop48
 90
       50
102
RTVSPost2010PropOp48
 70
     0
102
RTVSPost2010Prop49
280
     0
102
RTVSPost2010PropOp49
 70
     0
102
RTVSPost2010Prop50
 90
       50
102
RTVSPost2010PropOp50
 70
     0
102
RTVSPost2010Prop51ColorIndex
 90
      256
102
RTVSPost2010Prop51ColorRGB
 90
-16777216
102
RTVSPost2010PropOp51
 70
     0
102
RTVSPost2010Prop52
140
1.0
102
RTVSPost2010PropOp52
 70
     0
102
RTVSPost2010Prop53
 90
        2
102
RTVSPost2010PropOp53
 70
     0
102
RTVSPost2010Prop54
  1
strokes_ogs.tif
102
RTVSPost2010PropOp54
 70
     0
102
RTVSPost2010Prop55
280
     0
102
RTVSPost2010PropOp55
 70
     0
102
RTVSPost2010Prop56
140
1.0
102
RTVSPost2010PropOp56
 70
     0
102
RTVSPost2010Prop57
140
1.0
102
RTVSPost2010PropOp57
 70
     0
102
RTVSPropertyOp0
 70
     0
102
RTVSPropertyOp1
 70
     0
102
RTVSPropertyOp2
 70
     0
102
RTVSPropertyOp3
 70
     0
102
RTVSPropertyOp4
 70
     0
102
RTVSPropertyOp5
 70
     0
102
RTVSPropertyOp6
 70
     0
102
RTVSPropertyOp7
 70
     0
102
RTVSPropertyOp8
 70
     0
102
RTVSPropertyOp9
 70
     0
102
RTVSPropertyOp10
 70
     0
102
RTVSPropertyOp11
 70
     0
102
RTVSPropertyOp12
 70
     0
102
RTVSPropertyOp13
 70
     0
102
RTVSPropertyOp14
 70
     2
102
RTVSPropertyOp15
 70
     0
102
RTVSPropertyOp16
 70
     0
102
RTVSPropertyOp17
 70
     0
102
RTVSPropertyOp18
 70
     0
102
RTVSPropertyOp19
 70
     0
102
RTVSPropertyOp20
 70
     0
102
RTVSPropertyOp21
 70
     0
102
RTVSPropertyOp22
 70
     0
102
RTVSPropertyOp23
 70
     0
102
RTVSPropertyOp24
 70
     0
102
RTVSPropertyOp25
 70
     0
102
RTVSPropertyOp26
 70
     0
102
RTVSPropertyOp27
 70
     0
102
RTVSPropertyOp28
 70
     0
102
RTVSPropertyOp29
 70
     0
102
RTVSPropertyOp30
 70
     0
102
RTVSPropertyOp31
 70
     0
102
RTVSPropertyOp32
 70
     0
102
RTVSPropertyOp33
 70
     0
102
RTVSPropertyOp34
 70
     0
102
RTVSPropertyOp35
 70
     0
102
RTVSPropertyOp36
 70
     0
102
RTVSPropertyOp37
 70
     0
102
RTVSPropertyOp38
 70
     0
102
RTVSPropertyOp39
 70
     0
102
RTVSPropertyOp40
 70
     0
102
RTVSPropertyOp41
 70
     0
102
RTVSPropertyOp42
 70
     0
102
RTVSPropertyOp43
 70
     0
102
RTVSPropertyOp44
 70
     0
102
RTVSPropertyOp45
 70
     0
102
RTVSPropertyOp46
 70
     0
102
RTVSPropertyOp47
 70
     0
102
RTVSPropertyOp48
 70
     0
102
RTVSPropertyOp49
 70
     0
102
RTVSPropertyOp50
 70
     0
102
RTVSPropertyOp51
 70
     0
102
RTVSPropertyOp52
 70
     0
102
RTVSPropertyOp53
 70
     0
102
RTVSPropertyOp54
 70
     0
102
RTVSPropertyOp55
 70
     0
102
RTVSPropertyOp56
 70
     0
102
RTVSPropertyOp57
 70
     0
102
RTVSPropertyOp58
 70
     0
102
RTVSPropertyOp59
 70
     0
102
RTVSPropertyOp60
 70
     0
102
RTVSPropertyOp61
 70
     0
102
RTVSPropertyOp62
 70
     0
  0
XRECORD
  5
21E
102
{ACAD_REACTORS
330
21D
102
}
330
21D
100
AcDbXrecord
280
     1
102
RTVSPost2010Prop28
280
     0
102
RTVSPost2010PropOp28
 70
     1
102
RTVSPost2010Prop29
280
     1
102
RTVSPost2010PropOp29
 70
     1
102
RTVSPost2010Prop30
280
     1
102
RTVSPost2010PropOp30
 70
     1
102
RTVSPost2010Prop31
280
     0
102
RTVSPost2010PropOp31
 70
     1
102
RTVSPost2010Prop32
280
     0
102
RTVSPost2010PropOp32
 70
     1
102
RTVSPost2010Prop33
280
     0
102
RTVSPost2010PropOp33
 70
     1
102
RTVSPost2010Prop34
280
     0
102
RTVSPost2010PropOp34
 70
     1
102
RTVSPost2010Prop35
280
     0
102
RTVSPost2010PropOp35
 70
     1
102
RTVSPost2010Prop36
280
     0
102
RTVSPost2010PropOp36
 70
     1
102
RTVSPost2010Prop37
 90
       50
102
RTVSPost2010PropOp37
 70
     1
102
RTVSPost2010Prop38
140
0.0
102
RTVSPost2010PropOp38
 70
     1
102
RTVSPost2010Prop39
140
1.0
102
RTVSPost2010PropOp39
 70
     1
102
RTVSPost2010Prop40
 90
        0
102
RTVSPost2010PropOp40
 70
     1
102
RTVSPost2010Prop41ColorIndex
 90
       18
102
RTVSPost2010Prop41ColorRGB
 90
        0
102
RTVSPost2010PropOp41
 70
     1
102
RTVSPost2010Prop42
 90
       50
102
RTVSPost2010PropOp42
 70
     1
102
RTVSPost2010Prop43
 90
        3
102
RTVSPost2010PropOp43
 70
     1
102
RTVSPost2010Prop44ColorIndex
 90
        5
102
RTVSPost2010Prop44ColorRGB
 90
      255
102
RTVSPost2010PropOp44
 70
     1
102
RTVSPost2010Prop45
280
     0
102
RTVSPost2010PropOp45
 70
     1
102
RTVSPost2010Prop46
 90
       50
102
RTVSPost2010PropOp46
 70
     1
102
RTVSPost2010Prop47
 90
       50
102
RTVSPost2010PropOp47
 70
     1
102
RTVSPost2010Prop48
 90
       50
102
RTVSPost2010PropOp48
 70
     1
102
RTVSPost2010Prop49
280
     0
102
RTVSPost2010PropOp49
 70
     1
102
RTVSPost2010Prop50
 90
       50
102
RTVSPost2010PropOp50
 70
     1
102
RTVSPost2010Prop51ColorIndex
 90
      256
102
RTVSPost2010Prop51ColorRGB
 90
-16777216
102
RTVSPost2010PropOp51
 70
     0
102
RTVSPost2010Prop52
140
1.0
102
RTVSPost2010PropOp52
 70
     0
102
RTVSPost2010Prop53
 90
        2
102
RTVSPost2010PropOp53
 70
     1
102
RTVSPost2010Prop54
  1
strokes_ogs.tif
102
RTVSPost2010PropOp54
 70
     1
102
RTVSPost2010Prop55
280
     0
102
RTVSPost2010PropOp55
 70
     1
102
RTVSPost2010Prop56
140
1.0
102
RTVSPost2010PropOp56
 70
     1
102
RTVSPost2010Prop57
140
1.0
102
RTVSPost2010PropOp57
 70
     1
102
RTVSPropertyOp0
 70
     1
102
RTVSPropertyOp1
 70
     1
102
RTVSPropertyOp2
 70
     1
102
RTVSPropertyOp3
 70
     1
102
RTVSPropertyOp4
 70
     1
102
RTVSPropertyOp5
 70
     1
102
RTVSPropertyOp6
 70
     1
102
RTVSPropertyOp7
 70
     1
102
RTVSPropertyOp8
 70
     1
102
RTVSPropertyOp9
 70
     1
102
RTVSPropertyOp10
 70
     1
102
RTVSPropertyOp11
 70
     1
102
RTVSPropertyOp12
 70
     1
102
RTVSPropertyOp13
 70
     1
102
RTVSPropertyOp14
 70
     1
102
RTVSPropertyOp15
 70
     1
102
RTVSPropertyOp16
 70
     1
102
RTVSPropertyOp17
 70
     1
102
RTVSPropertyOp18
 70
     1
102
RTVSPropertyOp19
 70
     1
102
RTVSPropertyOp20
 70
     1
102
RTVSPropertyOp21
 70
     1
102
RTVSPropertyOp22
 70
     1
102
RTVSPropertyOp23
 70
     1
102
RTVSPropertyOp24
 70
     1
102
RTVSPropertyOp25
 70
     1
102
RTVSPropertyOp26
 70
     1
102
RTVSPropertyOp27
 70
     1
102
RTVSPropertyOp28
 70
     1
102
RTVSPropertyOp29
 70
     1
102
RTVSPropertyOp30
 70
     1
102
RTVSPropertyOp31
 70
     1
102
RTVSPropertyOp32
 70
     1
102
RTVSPropertyOp33
 70
     1
102
RTVSPropertyOp34
 70
     1
102
RTVSPropertyOp35
 70
     1
102
RTVSPropertyOp36
 70
     1
102
RTVSPropertyOp37
 70
     1
102
RTVSPropertyOp38
 70
     1
102
RTVSPropertyOp39
 70
     1
102
RTVSPropertyOp40
 70
     1
102
RTVSPropertyOp41
 70
     1
102
RTVSPropertyOp42
 70
     1
102
RTVSPropertyOp43
 70
     1
102
RTVSPropertyOp44
 70
     1
102
RTVSPropertyOp45
 70
     1
102
RTVSPropertyOp46
 70
     1
102
RTVSPropertyOp47
 70
     1
102
RTVSPropertyOp48
 70
     1
102
RTVSPropertyOp49
 70
     1
102
RTVSPropertyOp50
 70
     1
102
RTVSPropertyOp51
 70
     0
102
RTVSPropertyOp52
 70
     0
102
RTVSPropertyOp53
 70
     1
102
RTVSPropertyOp54
 70
     1
102
RTVSPropertyOp55
 70
     1
102
RTVSPropertyOp56
 70
     1
102
RTVSPropertyOp57
 70
     1
102
RTVSPropertyOp58
 70
     1
102
RTVSPropertyOp59
 70
     1
102
RTVSPropertyOp60
 70
     1
102
RTVSPropertyOp61
 70
     1
102
RTVSPropertyOp62
 70
     1
  0
XRECORD
  5
202
102
{ACAD_REACTORS
330
201
102
}
330
201
100
AcDbXrecord
280
     1
102
RTVSPost2010Prop28
280
     0
102
RTVSPost2010PropOp28
 70
     1
102
RTVSPost2010Prop29
280
     1
102
RTVSPost2010PropOp29
 70
     1
102
RTVSPost2010Prop30
280
     1
102
RTVSPost2010PropOp30
 70
     1
102
RTVSPost2010Prop31
280
     0
102
RTVSPost2010PropOp31
 70
     1
102
RTVSPost2010Prop32
280
     0
102
RTVSPost2010PropOp32
 70
     1
102
RTVSPost2010Prop33
280
     0
102
RTVSPost2010PropOp33
 70
     1
102
RTVSPost2010Prop34
280
     0
102
RTVSPost2010PropOp34
 70
     1
102
RTVSPost2010Prop35
280
     0
102
RTVSPost2010PropOp35
 70
     1
102
RTVSPost2010Prop36
280
     0
102
RTVSPost2010PropOp36
 70
     1
102
RTVSPost2010Prop37
 90
       50
102
RTVSPost2010PropOp37
 70
     1
102
RTVSPost2010Prop38
140
0.0
102
RTVSPost2010PropOp38
 70
     1
102
RTVSPost2010Prop39
140
1.0
102
RTVSPost2010PropOp39
 70
     1
102
RTVSPost2010Prop40
 90
        0
102
RTVSPost2010PropOp40
 70
     1
102
RTVSPost2010Prop41ColorIndex
 90
       18
102
RTVSPost2010Prop41ColorRGB
 90
        0
102
RTVSPost2010PropOp41
 70
     1
102
RTVSPost2010Prop42
 90
       50
102
RTVSPost2010PropOp42
 70
     1
102
RTVSPost2010Prop43
 90
        3
102
RTVSPost2010PropOp43
 70
     1
102
RTVSPost2010Prop44ColorIndex
 90
        5
102
RTVSPost2010Prop44ColorRGB
 90
      255
102
RTVSPost2010PropOp44
 70
     1
102
RTVSPost2010Prop45
280
     0
102
RTVSPost2010PropOp45
 70
     1
102
RTVSPost2010Prop46
 90
       50
102
RTVSPost2010PropOp46
 70
     1
102
RTVSPost2010Prop47
 90
       50
102
RTVSPost2010PropOp47
 70
     1
102
RTVSPost2010Prop48
 90
       50
102
RTVSPost2010PropOp48
 70
     1
102
RTVSPost2010Prop49
280
     0
102
RTVSPost2010PropOp49
 70
     1
102
RTVSPost2010Prop50
 90
       50
102
RTVSPost2010PropOp50
 70
     1
102
RTVSPost2010Prop51ColorIndex
 90
      256
102
RTVSPost2010Prop51ColorRGB
 90
-16777216
102
RTVSPost2010PropOp51
 70
     0
102
RTVSPost2010Prop52
140
1.0
102
RTVSPost2010PropOp52
 70
     0
102
RTVSPost2010Prop53
 90
        2
102
RTVSPost2010PropOp53
 70
     1
102
RTVSPost2010Prop54
  1
strokes_ogs.tif
102
RTVSPost2010PropOp54
 70
     1
102
RTVSPost2010Prop55
280
     0
102
RTVSPost2010PropOp55
 70
     1
102
RTVSPost2010Prop56
140
1.0
102
RTVSPost2010PropOp56
 70
     1
102
RTVSPost2010Prop57
140
1.0
102
RTVSPost2010PropOp57
 70
     1
102
RTVSPropertyOp0
 70
     1
102
RTVSPropertyOp1
 70
     1
102
RTVSPropertyOp2
 70
     1
102
RTVSPropertyOp3
 70
     1
102
RTVSPropertyOp4
 70
     1
102
RTVSPropertyOp5
 70
     1
102
RTVSPropertyOp6
 70
     1
102
RTVSPropertyOp7
 70
     1
102
RTVSPropertyOp8
 70
     1
102
RTVSPropertyOp9
 70
     1
102
RTVSPropertyOp10
 70
     1
102
RTVSPropertyOp11
 70
     1
102
RTVSPropertyOp12
 70
     1
102
RTVSPropertyOp13
 70
     1
102
RTVSPropertyOp14
 70
     1
102
RTVSPropertyOp15
 70
     1
102
RTVSPropertyOp16
 70
     1
102
RTVSPropertyOp17
 70
     1
102
RTVSPropertyOp18
 70
     1
102
RTVSPropertyOp19
 70
     1
102
RTVSPropertyOp20
 70
     1
102
RTVSPropertyOp21
 70
     1
102
RTVSPropertyOp22
 70
     1
102
RTVSPropertyOp23
 70
     1
102
RTVSPropertyOp24
 70
     1
102
RTVSPropertyOp25
 70
     1
102
RTVSPropertyOp26
 70
     1
102
RTVSPropertyOp27
 70
     1
102
RTVSPropertyOp28
 70
     1
102
RTVSPropertyOp29
 70
     1
102
RTVSPropertyOp30
 70
     1
102
RTVSPropertyOp31
 70
     1
102
RTVSPropertyOp32
 70
     1
102
RTVSPropertyOp33
 70
     1
102
RTVSPropertyOp34
 70
     1
102
RTVSPropertyOp35
 70
     1
102
RTVSPropertyOp36
 70
     1
102
RTVSPropertyOp37
 70
     1
102
RTVSPropertyOp38
 70
     1
102
RTVSPropertyOp39
 70
     1
102
RTVSPropertyOp40
 70
     1
102
RTVSPropertyOp41
 70
     1
102
RTVSPropertyOp42
 70
     1
102
RTVSPropertyOp43
 70
     1
102
RTVSPropertyOp44
 70
     1
102
RTVSPropertyOp45
 70
     1
102
RTVSPropertyOp46
 70
     1
102
RTVSPropertyOp47
 70
     1
102
RTVSPropertyOp48
 70
     1
102
RTVSPropertyOp49
 70
     1
102
RTVSPropertyOp50
 70
     1
102
RTVSPropertyOp51
 70
     0
102
RTVSPropertyOp52
 70
     0
102
RTVSPropertyOp53
 70
     1
102
RTVSPropertyOp54
 70
     1
102
RTVSPropertyOp55
 70
     1
102
RTVSPropertyOp56
 70
     1
102
RTVSPropertyOp57
 70
     1
102
RTVSPropertyOp58
 70
     1
102
RTVSPropertyOp59
 70
     1
102
RTVSPropertyOp60
 70
     1
102
RTVSPropertyOp61
 70
     1
102
RTVSPropertyOp62
 70
     1
  0
XRECORD
  5
204
102
{ACAD_REACTORS
330
203
102
}
330
203
100
AcDbXrecord
280
     1
102
RTVSPost2010Prop28
280
     0
102
RTVSPost2010PropOp28
 70
     1
102
RTVSPost2010Prop29
280
     1
102
RTVSPost2010PropOp29
 70
     1
102
RTVSPost2010Prop30
280
     1
102
RTVSPost2010PropOp30
 70
     1
102
RTVSPost2010Prop31
280
     0
102
RTVSPost2010PropOp31
 70
     1
102
RTVSPost2010Prop32
280
     0
102
RTVSPost2010PropOp32
 70
     1
102
RTVSPost2010Prop33
280
     0
102
RTVSPost2010PropOp33
 70
     1
102
RTVSPost2010Prop34
280
     0
102
RTVSPost2010PropOp34
 70
     1
102
RTVSPost2010Prop35
280
     0
102
RTVSPost2010PropOp35
 70
     1
102
RTVSPost2010Prop36
280
     0
102
RTVSPost2010PropOp36
 70
     1
102
RTVSPost2010Prop37
 90
       50
102
RTVSPost2010PropOp37
 70
     1
102
RTVSPost2010Prop38
140
0.0
102
RTVSPost2010PropOp38
 70
     1
102
RTVSPost2010Prop39
140
1.0
102
RTVSPost2010PropOp39
 70
     1
102
RTVSPost2010Prop40
 90
        0
102
RTVSPost2010PropOp40
 70
     1
102
RTVSPost2010Prop41ColorIndex
 90
       18
102
RTVSPost2010Prop41ColorRGB
 90
        0
102
RTVSPost2010PropOp41
 70
     1
102
RTVSPost2010Prop42
 90
       50
102
RTVSPost2010PropOp42
 70
     1
102
RTVSPost2010Prop43
 90
        3
102
RTVSPost2010PropOp43
 70
     1
102
RTVSPost2010Prop44ColorIndex
 90
        5
102
RTVSPost2010Prop44ColorRGB
 90
      255
102
RTVSPost2010PropOp44
 70
     1
102
RTVSPost2010Prop45
280
     0
102
RTVSPost2010PropOp45
 70
     1
102
RTVSPost2010Prop46
 90
       50
102
RTVSPost2010PropOp46
 70
     1
102
RTVSPost2010Prop47
 90
       50
102
RTVSPost2010PropOp47
 70
     1
102
RTVSPost2010Prop48
 90
       50
102
RTVSPost2010PropOp48
 70
     1
102
RTVSPost2010Prop49
280
     0
102
RTVSPost2010PropOp49
 70
     1
102
RTVSPost2010Prop50
 90
       50
102
RTVSPost2010PropOp50
 70
     1
102
RTVSPost2010Prop51ColorIndex
 90
      256
102
RTVSPost2010Prop51ColorRGB
 90
-16777216
102
RTVSPost2010PropOp51
 70
     0
102
RTVSPost2010Prop52
140
1.0
102
RTVSPost2010PropOp52
 70
     0
102
RTVSPost2010Prop53
 90
        2
102
RTVSPost2010PropOp53
 70
     1
102
RTVSPost2010Prop54
  1
strokes_ogs.tif
102
RTVSPost2010PropOp54
 70
     1
102
RTVSPost2010Prop55
280
     0
102
RTVSPost2010PropOp55
 70
     1
102
RTVSPost2010Prop56
140
1.0
102
RTVSPost2010PropOp56
 70
     1
102
RTVSPost2010Prop57
140
1.0
102
RTVSPost2010PropOp57
 70
     1
102
RTVSPropertyOp0
 70
     1
102
RTVSPropertyOp1
 70
     1
102
RTVSPropertyOp2
 70
     1
102
RTVSPropertyOp3
 70
     1
102
RTVSPropertyOp4
 70
     1
102
RTVSPropertyOp5
 70
     1
102
RTVSPropertyOp6
 70
     1
102
RTVSPropertyOp7
 70
     1
102
RTVSPropertyOp8
 70
     1
102
RTVSPropertyOp9
 70
     1
102
RTVSPropertyOp10
 70
     1
102
RTVSPropertyOp11
 70
     1
102
RTVSPropertyOp12
 70
     1
102
RTVSPropertyOp13
 70
     1
102
RTVSPropertyOp14
 70
     1
102
RTVSPropertyOp15
 70
     1
102
RTVSPropertyOp16
 70
     1
102
RTVSPropertyOp17
 70
     1
102
RTVSPropertyOp18
 70
     1
102
RTVSPropertyOp19
 70
     1
102
RTVSPropertyOp20
 70
     1
102
RTVSPropertyOp21
 70
     1
102
RTVSPropertyOp22
 70
     1
102
RTVSPropertyOp23
 70
     1
102
RTVSPropertyOp24
 70
     1
102
RTVSPropertyOp25
 70
     1
102
RTVSPropertyOp26
 70
     1
102
RTVSPropertyOp27
 70
     1
102
RTVSPropertyOp28
 70
     1
102
RTVSPropertyOp29
 70
     1
102
RTVSPropertyOp30
 70
     1
102
RTVSPropertyOp31
 70
     1
102
RTVSPropertyOp32
 70
     1
102
RTVSPropertyOp33
 70
     1
102
RTVSPropertyOp34
 70
     1
102
RTVSPropertyOp35
 70
     1
102
RTVSPropertyOp36
 70
     1
102
RTVSPropertyOp37
 70
     1
102
RTVSPropertyOp38
 70
     1
102
RTVSPropertyOp39
 70
     1
102
RTVSPropertyOp40
 70
     1
102
RTVSPropertyOp41
 70
     1
102
RTVSPropertyOp42
 70
     1
102
RTVSPropertyOp43
 70
     1
102
RTVSPropertyOp44
 70
     1
102
RTVSPropertyOp45
 70
     1
102
RTVSPropertyOp46
 70
     1
102
RTVSPropertyOp47
 70
     1
102
RTVSPropertyOp48
 70
     1
102
RTVSPropertyOp49
 70
     1
102
RTVSPropertyOp50
 70
     1
102
RTVSPropertyOp51
 70
     0
102
RTVSPropertyOp52
 70
     0
102
RTVSPropertyOp53
 70
     1
102
RTVSPropertyOp54
 70
     1
102
RTVSPropertyOp55
 70
     1
102
RTVSPropertyOp56
 70
     1
102
RTVSPropertyOp57
 70
     1
102
RTVSPropertyOp58
 70
     1
102
RTVSPropertyOp59
 70
     1
102
RTVSPropertyOp60
 70
     1
102
RTVSPropertyOp61
 70
     1
102
RTVSPropertyOp62
 70
     1
  0
XRECORD
  5
206
102
{ACAD_REACTORS
330
205
102
}
330
205
100
AcDbXrecord
280
     1
102
RTVSPost2010Prop28
280
     0
102
RTVSPost2010PropOp28
 70
     1
102
RTVSPost2010Prop29
280
     1
102
RTVSPost2010PropOp29
 70
     1
102
RTVSPost2010Prop30
280
     1
102
RTVSPost2010PropOp30
 70
     1
102
RTVSPost2010Prop31
280
     0
102
RTVSPost2010PropOp31
 70
     1
102
RTVSPost2010Prop32
280
     0
102
RTVSPost2010PropOp32
 70
     1
102
RTVSPost2010Prop33
280
     0
102
RTVSPost2010PropOp33
 70
     1
102
RTVSPost2010Prop34
280
     0
102
RTVSPost2010PropOp34
 70
     1
102
RTVSPost2010Prop35
280
     0
102
RTVSPost2010PropOp35
 70
     1
102
RTVSPost2010Prop36
280
     0
102
RTVSPost2010PropOp36
 70
     1
102
RTVSPost2010Prop37
 90
       50
102
RTVSPost2010PropOp37
 70
     1
102
RTVSPost2010Prop38
140
0.0
102
RTVSPost2010PropOp38
 70
     1
102
RTVSPost2010Prop39
140
1.0
102
RTVSPost2010PropOp39
 70
     1
102
RTVSPost2010Prop40
 90
        0
102
RTVSPost2010PropOp40
 70
     1
102
RTVSPost2010Prop41ColorIndex
 90
       18
102
RTVSPost2010Prop41ColorRGB
 90
        0
102
RTVSPost2010PropOp41
 70
     1
102
RTVSPost2010Prop42
 90
       50
102
RTVSPost2010PropOp42
 70
     1
102
RTVSPost2010Prop43
 90
        3
102
RTVSPost2010PropOp43
 70
     1
102
RTVSPost2010Prop44ColorIndex
 90
        5
102
RTVSPost2010Prop44ColorRGB
 90
      255
102
RTVSPost2010PropOp44
 70
     1
102
RTVSPost2010Prop45
280
     0
102
RTVSPost2010PropOp45
 70
     1
102
RTVSPost2010Prop46
 90
       50
102
RTVSPost2010PropOp46
 70
     1
102
RTVSPost2010Prop47
 90
       50
102
RTVSPost2010PropOp47
 70
     1
102
RTVSPost2010Prop48
 90
       50
102
RTVSPost2010PropOp48
 70
     1
102
RTVSPost2010Prop49
280
     0
102
RTVSPost2010PropOp49
 70
     1
102
RTVSPost2010Prop50
 90
       50
102
RTVSPost2010PropOp50
 70
     1
102
RTVSPost2010Prop51ColorIndex
 90
      256
102
RTVSPost2010Prop51ColorRGB
 90
-16777216
102
RTVSPost2010PropOp51
 70
     0
102
RTVSPost2010Prop52
140
1.0
102
RTVSPost2010PropOp52
 70
     0
102
RTVSPost2010Prop53
 90
        2
102
RTVSPost2010PropOp53
 70
     1
102
RTVSPost2010Prop54
  1
strokes_ogs.tif
102
RTVSPost2010PropOp54
 70
     1
102
RTVSPost2010Prop55
280
     0
102
RTVSPost2010PropOp55
 70
     1
102
RTVSPost2010Prop56
140
1.0
102
RTVSPost2010PropOp56
 70
     1
102
RTVSPost2010Prop57
140
1.0
102
RTVSPost2010PropOp57
 70
     1
102
RTVSPropertyOp0
 70
     1
102
RTVSPropertyOp1
 70
     1
102
RTVSPropertyOp2
 70
     1
102
RTVSPropertyOp3
 70
     1
102
RTVSPropertyOp4
 70
     1
102
RTVSPropertyOp5
 70
     1
102
RTVSPropertyOp6
 70
     1
102
RTVSPropertyOp7
 70
     1
102
RTVSPropertyOp8
 70
     1
102
RTVSPropertyOp9
 70
     1
102
RTVSPropertyOp10
 70
     1
102
RTVSPropertyOp11
 70
     1
102
RTVSPropertyOp12
 70
     1
102
RTVSPropertyOp13
 70
     1
102
RTVSPropertyOp14
 70
     1
102
RTVSPropertyOp15
 70
     1
102
RTVSPropertyOp16
 70
     1
102
RTVSPropertyOp17
 70
     1
102
RTVSPropertyOp18
 70
     1
102
RTVSPropertyOp19
 70
     1
102
RTVSPropertyOp20
 70
     1
102
RTVSPropertyOp21
 70
     1
102
RTVSPropertyOp22
 70
     1
102
RTVSPropertyOp23
 70
     1
102
RTVSPropertyOp24
 70
     1
102
RTVSPropertyOp25
 70
     1
102
RTVSPropertyOp26
 70
     1
102
RTVSPropertyOp27
 70
     1
102
RTVSPropertyOp28
 70
     1
102
RTVSPropertyOp29
 70
     1
102
RTVSPropertyOp30
 70
     1
102
RTVSPropertyOp31
 70
     1
102
RTVSPropertyOp32
 70
     1
102
RTVSPropertyOp33
 70
     1
102
RTVSPropertyOp34
 70
     1
102
RTVSPropertyOp35
 70
     1
102
RTVSPropertyOp36
 70
     1
102
RTVSPropertyOp37
 70
     1
102
RTVSPropertyOp38
 70
     1
102
RTVSPropertyOp39
 70
     1
102
RTVSPropertyOp40
 70
     1
102
RTVSPropertyOp41
 70
     1
102
RTVSPropertyOp42
 70
     1
102
RTVSPropertyOp43
 70
     1
102
RTVSPropertyOp44
 70
     1
102
RTVSPropertyOp45
 70
     1
102
RTVSPropertyOp46
 70
     1
102
RTVSPropertyOp47
 70
     1
102
RTVSPropertyOp48
 70
     1
102
RTVSPropertyOp49
 70
     1
102
RTVSPropertyOp50
 70
     1
102
RTVSPropertyOp51
 70
     0
102
RTVSPropertyOp52
 70
     0
102
RTVSPropertyOp53
 70
     1
102
RTVSPropertyOp54
 70
     1
102
RTVSPropertyOp55
 70
     1
102
RTVSPropertyOp56
 70
     1
102
RTVSPropertyOp57
 70
     1
102
RTVSPropertyOp58
 70
     1
102
RTVSPropertyOp59
 70
     1
102
RTVSPropertyOp60
 70
     1
102
RTVSPropertyOp61
 70
     1
102
RTVSPropertyOp62
 70
     1
  0
XRECORD
  5
208
102
{ACAD_REACTORS
330
207
102
}
330
207
100
AcDbXrecord
280
     1
102
RTVSPost2010Prop28
280
     0
102
RTVSPost2010PropOp28
 70
     1
102
RTVSPost2010Prop29
280
     1
102
RTVSPost2010PropOp29
 70
     1
102
RTVSPost2010Prop30
280
     1
102
RTVSPost2010PropOp30
 70
     1
102
RTVSPost2010Prop31
280
     0
102
RTVSPost2010PropOp31
 70
     1
102
RTVSPost2010Prop32
280
     0
102
RTVSPost2010PropOp32
 70
     1
102
RTVSPost2010Prop33
280
     0
102
RTVSPost2010PropOp33
 70
     1
102
RTVSPost2010Prop34
280
     0
102
RTVSPost2010PropOp34
 70
     1
102
RTVSPost2010Prop35
280
     0
102
RTVSPost2010PropOp35
 70
     1
102
RTVSPost2010Prop36
280
     0
102
RTVSPost2010PropOp36
 70
     1
102
RTVSPost2010Prop37
 90
       50
102
RTVSPost2010PropOp37
 70
     1
102
RTVSPost2010Prop38
140
0.0
102
RTVSPost2010PropOp38
 70
     1
102
RTVSPost2010Prop39
140
1.0
102
RTVSPost2010PropOp39
 70
     1
102
RTVSPost2010Prop40
 90
        0
102
RTVSPost2010PropOp40
 70
     1
102
RTVSPost2010Prop41ColorIndex
 90
       18
102
RTVSPost2010Prop41ColorRGB
 90
        0
102
RTVSPost2010PropOp41
 70
     1
102
RTVSPost2010Prop42
 90
       50
102
RTVSPost2010PropOp42
 70
     1
102
RTVSPost2010Prop43
 90
        3
102
RTVSPost2010PropOp43
 70
     1
102
RTVSPost2010Prop44ColorIndex
 90
        5
102
RTVSPost2010Prop44ColorRGB
 90
      255
102
RTVSPost2010PropOp44
 70
     1
102
RTVSPost2010Prop45
280
     0
102
RTVSPost2010PropOp45
 70
     1
102
RTVSPost2010Prop46
 90
       50
102
RTVSPost2010PropOp46
 70
     1
102
RTVSPost2010Prop47
 90
       50
102
RTVSPost2010PropOp47
 70
     1
102
RTVSPost2010Prop48
 90
       50
102
RTVSPost2010PropOp48
 70
     1
102
RTVSPost2010Prop49
280
     0
102
RTVSPost2010PropOp49
 70
     1
102
RTVSPost2010Prop50
 90
       50
102
RTVSPost2010PropOp50
 70
     1
102
RTVSPost2010Prop51ColorIndex
 90
      256
102
RTVSPost2010Prop51ColorRGB
 90
-16777216
102
RTVSPost2010PropOp51
 70
     0
102
RTVSPost2010Prop52
140
1.0
102
RTVSPost2010PropOp52
 70
     0
102
RTVSPost2010Prop53
 90
        2
102
RTVSPost2010PropOp53
 70
     1
102
RTVSPost2010Prop54
  1
strokes_ogs.tif
102
RTVSPost2010PropOp54
 70
     1
102
RTVSPost2010Prop55
280
     0
102
RTVSPost2010PropOp55
 70
     1
102
RTVSPost2010Prop56
140
1.0
102
RTVSPost2010PropOp56
 70
     1
102
RTVSPost2010Prop57
140
1.0
102
RTVSPost2010PropOp57
 70
     1
102
RTVSPropertyOp0
 70
     1
102
RTVSPropertyOp1
 70
     1
102
RTVSPropertyOp2
 70
     1
102
RTVSPropertyOp3
 70
     1
102
RTVSPropertyOp4
 70
     1
102
RTVSPropertyOp5
 70
     1
102
RTVSPropertyOp6
 70
     1
102
RTVSPropertyOp7
 70
     1
102
RTVSPropertyOp8
 70
     1
102
RTVSPropertyOp9
 70
     1
102
RTVSPropertyOp10
 70
     1
102
RTVSPropertyOp11
 70
     1
102
RTVSPropertyOp12
 70
     1
102
RTVSPropertyOp13
 70
     1
102
RTVSPropertyOp14
 70
     1
102
RTVSPropertyOp15
 70
     1
102
RTVSPropertyOp16
 70
     1
102
RTVSPropertyOp17
 70
     1
102
RTVSPropertyOp18
 70
     1
102
RTVSPropertyOp19
 70
     1
102
RTVSPropertyOp20
 70
     1
102
RTVSPropertyOp21
 70
     1
102
RTVSPropertyOp22
 70
     1
102
RTVSPropertyOp23
 70
     1
102
RTVSPropertyOp24
 70
     1
102
RTVSPropertyOp25
 70
     1
102
RTVSPropertyOp26
 70
     1
102
RTVSPropertyOp27
 70
     1
102
RTVSPropertyOp28
 70
     1
102
RTVSPropertyOp29
 70
     1
102
RTVSPropertyOp30
 70
     1
102
RTVSPropertyOp31
 70
     1
102
RTVSPropertyOp32
 70
     1
102
RTVSPropertyOp33
 70
     1
102
RTVSPropertyOp34
 70
     1
102
RTVSPropertyOp35
 70
     1
102
RTVSPropertyOp36
 70
     1
102
RTVSPropertyOp37
 70
     1
102
RTVSPropertyOp38
 70
     1
102
RTVSPropertyOp39
 70
     1
102
RTVSPropertyOp40
 70
     1
102
RTVSPropertyOp41
 70
     1
102
RTVSPropertyOp42
 70
     1
102
RTVSPropertyOp43
 70
     1
102
RTVSPropertyOp44
 70
     1
102
RTVSPropertyOp45
 70
     1
102
RTVSPropertyOp46
 70
     1
102
RTVSPropertyOp47
 70
     1
102
RTVSPropertyOp48
 70
     1
102
RTVSPropertyOp49
 70
     1
102
RTVSPropertyOp50
 70
     1
102
RTVSPropertyOp51
 70
     0
102
RTVSPropertyOp52
 70
     0
102
RTVSPropertyOp53
 70
     1
102
RTVSPropertyOp54
 70
     1
102
RTVSPropertyOp55
 70
     1
102
RTVSPropertyOp56
 70
     1
102
RTVSPropertyOp57
 70
     1
102
RTVSPropertyOp58
 70
     1
102
RTVSPropertyOp59
 70
     1
102
RTVSPropertyOp60
 70
     1
102
RTVSPropertyOp61
 70
     1
102
RTVSPropertyOp62
 70
     1
  0
XRECORD
  5
210
102
{ACAD_REACTORS
330
20F
102
}
330
20F
100
AcDbXrecord
280
     1
102
RTVSPost2010Prop28
280
     0
102
RTVSPost2010PropOp28
 70
     1
102
RTVSPost2010Prop29
280
     1
102
RTVSPost2010PropOp29
 70
     1
102
RTVSPost2010Prop30
280
     1
102
RTVSPost2010PropOp30
 70
     1
102
RTVSPost2010Prop31
280
     0
102
RTVSPost2010PropOp31
 70
     1
102
RTVSPost2010Prop32
280
     0
102
RTVSPost2010PropOp32
 70
     1
102
RTVSPost2010Prop33
280
     0
102
RTVSPost2010PropOp33
 70
     1
102
RTVSPost2010Prop34
280
     0
102
RTVSPost2010PropOp34
 70
     1
102
RTVSPost2010Prop35
280
     0
102
RTVSPost2010PropOp35
 70
     1
102
RTVSPost2010Prop36
280
     0
102
RTVSPost2010PropOp36
 70
     1
102
RTVSPost2010Prop37
 90
       50
102
RTVSPost2010PropOp37
 70
     1
102
RTVSPost2010Prop38
140
0.0
102
RTVSPost2010PropOp38
 70
     1
102
RTVSPost2010Prop39
140
1.0
102
RTVSPost2010PropOp39
 70
     1
102
RTVSPost2010Prop40
 90
        0
102
RTVSPost2010PropOp40
 70
     1
102
RTVSPost2010Prop41ColorIndex
 90
       18
102
RTVSPost2010Prop41ColorRGB
 90
        0
102
RTVSPost2010PropOp41
 70
     1
102
RTVSPost2010Prop42
 90
       50
102
RTVSPost2010PropOp42
 70
     1
102
RTVSPost2010Prop43
 90
        3
102
RTVSPost2010PropOp43
 70
     1
102
RTVSPost2010Prop44ColorIndex
 90
        5
102
RTVSPost2010Prop44ColorRGB
 90
      255
102
RTVSPost2010PropOp44
 70
     1
102
RTVSPost2010Prop45
280
     0
102
RTVSPost2010PropOp45
 70
     1
102
RTVSPost2010Prop46
 90
       50
102
RTVSPost2010PropOp46
 70
     1
102
RTVSPost2010Prop47
 90
       50
102
RTVSPost2010PropOp47
 70
     1
102
RTVSPost2010Prop48
 90
       50
102
RTVSPost2010PropOp48
 70
     1
102
RTVSPost2010Prop49
280
     0
102
RTVSPost2010PropOp49
 70
     1
102
RTVSPost2010Prop50
 90
       50
102
RTVSPost2010PropOp50
 70
     1
102
RTVSPost2010Prop51ColorIndex
 90
      256
102
RTVSPost2010Prop51ColorRGB
 90
-16777216
102
RTVSPost2010PropOp51
 70
     0
102
RTVSPost2010Prop52
140
1.0
102
RTVSPost2010PropOp52
 70
     0
102
RTVSPost2010Prop53
 90
        2
102
RTVSPost2010PropOp53
 70
     1
102
RTVSPost2010Prop54
  1
strokes_ogs.tif
102
RTVSPost2010PropOp54
 70
     1
102
RTVSPost2010Prop55
280
     0
102
RTVSPost2010PropOp55
 70
     1
102
RTVSPost2010Prop56
140
1.0
102
RTVSPost2010PropOp56
 70
     1
102
RTVSPost2010Prop57
140
1.0
102
RTVSPost2010PropOp57
 70
     1
102
RTVSPropertyOp0
 70
     1
102
RTVSPropertyOp1
 70
     1
102
RTVSPropertyOp2
 70
     1
102
RTVSPropertyOp3
 70
     1
102
RTVSPropertyOp4
 70
     1
102
RTVSPropertyOp5
 70
     1
102
RTVSPropertyOp6
 70
     1
102
RTVSPropertyOp7
 70
     1
102
RTVSPropertyOp8
 70
     1
102
RTVSPropertyOp9
 70
     1
102
RTVSPropertyOp10
 70
     1
102
RTVSPropertyOp11
 70
     1
102
RTVSPropertyOp12
 70
     1
102
RTVSPropertyOp13
 70
     1
102
RTVSPropertyOp14
 70
     1
102
RTVSPropertyOp15
 70
     1
102
RTVSPropertyOp16
 70
     1
102
RTVSPropertyOp17
 70
     1
102
RTVSPropertyOp18
 70
     1
102
RTVSPropertyOp19
 70
     1
102
RTVSPropertyOp20
 70
     1
102
RTVSPropertyOp21
 70
     1
102
RTVSPropertyOp22
 70
     1
102
RTVSPropertyOp23
 70
     1
102
RTVSPropertyOp24
 70
     1
102
RTVSPropertyOp25
 70
     1
102
RTVSPropertyOp26
 70
     1
102
RTVSPropertyOp27
 70
     1
102
RTVSPropertyOp28
 70
     1
102
RTVSPropertyOp29
 70
     1
102
RTVSPropertyOp30
 70
     1
102
RTVSPropertyOp31
 70
     1
102
RTVSPropertyOp32
 70
     1
102
RTVSPropertyOp33
 70
     1
102
RTVSPropertyOp34
 70
     1
102
RTVSPropertyOp35
 70
     1
102
RTVSPropertyOp36
 70
     1
102
RTVSPropertyOp37
 70
     1
102
RTVSPropertyOp38
 70
     1
102
RTVSPropertyOp39
 70
     1
102
RTVSPropertyOp40
 70
     1
102
RTVSPropertyOp41
 70
     1
102
RTVSPropertyOp42
 70
     1
102
RTVSPropertyOp43
 70
     1
102
RTVSPropertyOp44
 70
     1
102
RTVSPropertyOp45
 70
     1
102
RTVSPropertyOp46
 70
     1
102
RTVSPropertyOp47
 70
     1
102
RTVSPropertyOp48
 70
     1
102
RTVSPropertyOp49
 70
     1
102
RTVSPropertyOp50
 70
     1
102
RTVSPropertyOp51
 70
     0
102
RTVSPropertyOp52
 70
     0
102
RTVSPropertyOp53
 70
     1
102
RTVSPropertyOp54
 70
     1
102
RTVSPropertyOp55
 70
     1
102
RTVSPropertyOp56
 70
     1
102
RTVSPropertyOp57
 70
     1
102
RTVSPropertyOp58
 70
     1
102
RTVSPropertyOp59
 70
     1
102
RTVSPropertyOp60
 70
     1
102
RTVSPropertyOp61
 70
     1
102
RTVSPropertyOp62
 70
     1
  0
XRECORD
  5
22C
102
{ACAD_REACTORS
330
22B
102
}
330
22B
100
AcDbXrecord
280
     1
102
RTVSPost2010Prop28
280
     0
102
RTVSPost2010PropOp28
 70
     0
102
RTVSPost2010Prop29
280
     1
102
RTVSPost2010PropOp29
 70
     0
102
RTVSPost2010Prop30
280
     1
102
RTVSPost2010PropOp30
 70
     0
102
RTVSPost2010Prop31
280
     0
102
RTVSPost2010PropOp31
 70
     0
102
RTVSPost2010Prop32
280
     0
102
RTVSPost2010PropOp32
 70
     0
102
RTVSPost2010Prop33
280
     0
102
RTVSPost2010PropOp33
 70
     0
102
RTVSPost2010Prop34
280
     0
102
RTVSPost2010PropOp34
 70
     0
102
RTVSPost2010Prop35
280
     0
102
RTVSPost2010PropOp35
 70
     0
102
RTVSPost2010Prop36
280
     0
102
RTVSPost2010PropOp36
 70
     0
102
RTVSPost2010Prop37
 90
       50
102
RTVSPost2010PropOp37
 70
     0
102
RTVSPost2010Prop38
140
0.0
102
RTVSPost2010PropOp38
 70
     0
102
RTVSPost2010Prop39
140
1.0
102
RTVSPost2010PropOp39
 70
     0
102
RTVSPost2010Prop40
 90
        0
102
RTVSPost2010PropOp40
 70
     0
102
RTVSPost2010Prop41ColorIndex
 90
       18
102
RTVSPost2010Prop41ColorRGB
 90
        0
102
RTVSPost2010PropOp41
 70
     0
102
RTVSPost2010Prop42
 90
       50
102
RTVSPost2010PropOp42
 70
     0
102
RTVSPost2010Prop43
 90
        3
102
RTVSPost2010PropOp43
 70
     0
102
RTVSPost2010Prop44ColorIndex
 90
        5
102
RTVSPost2010Prop44ColorRGB
 90
      255
102
RTVSPost2010PropOp44
 70
     0
102
RTVSPost2010Prop45
280
     0
102
RTVSPost2010PropOp45
 70
     0
102
RTVSPost2010Prop46
 90
       50
102
RTVSPost2010PropOp46
 70
     0
102
RTVSPost2010Prop47
 90
       50
102
RTVSPost2010PropOp47
 70
     0
102
RTVSPost2010Prop48
 90
       50
102
RTVSPost2010PropOp48
 70
     0
102
RTVSPost2010Prop49
280
     0
102
RTVSPost2010PropOp49
 70
     0
102
RTVSPost2010Prop50
 90
       50
102
RTVSPost2010PropOp50
 70
     0
102
RTVSPost2010Prop51ColorIndex
 90
      256
102
RTVSPost2010Prop51ColorRGB
 90
-16777216
102
RTVSPost2010PropOp51
 70
     0
102
RTVSPost2010Prop52
140
1.0
102
RTVSPost2010PropOp52
 70
     0
102
RTVSPost2010Prop53
 90
        2
102
RTVSPost2010PropOp53
 70
     0
102
RTVSPost2010Prop54
  1
strokes_ogs.tif
102
RTVSPost2010PropOp54
 70
     0
102
RTVSPost2010Prop55
280
     0
102
RTVSPost2010PropOp55
 70
     0
102
RTVSPost2010Prop56
140
1.0
102
RTVSPost2010PropOp56
 70
     0
102
RTVSPost2010Prop57
140
1.0
102
RTVSPost2010PropOp57
 70
     0
102
RTVSPropertyOp0
 70
     0
102
RTVSPropertyOp1
 70
     0
102
RTVSPropertyOp2
 70
     0
102
RTVSPropertyOp3
 70
     0
102
RTVSPropertyOp4
 70
     0
102
RTVSPropertyOp5
 70
     0
102
RTVSPropertyOp6
 70
     0
102
RTVSPropertyOp7
 70
     0
102
RTVSPropertyOp8
 70
     0
102
RTVSPropertyOp9
 70
     0
102
RTVSPropertyOp10
 70
     0
102
RTVSPropertyOp11
 70
     0
102
RTVSPropertyOp12
 70
     0
102
RTVSPropertyOp13
 70
     0
102
RTVSPropertyOp14
 70
     2
102
RTVSPropertyOp15
 70
     0
102
RTVSPropertyOp16
 70
     0
102
RTVSPropertyOp17
 70
     0
102
RTVSPropertyOp18
 70
     0
102
RTVSPropertyOp19
 70
     0
102
RTVSPropertyOp20
 70
     0
102
RTVSPropertyOp21
 70
     0
102
RTVSPropertyOp22
 70
     0
102
RTVSPropertyOp23
 70
     0
102
RTVSPropertyOp24
 70
     0
102
RTVSPropertyOp25
 70
     0
102
RTVSPropertyOp26
 70
     0
102
RTVSPropertyOp27
 70
     0
102
RTVSPropertyOp28
 70
     0
102
RTVSPropertyOp29
 70
     0
102
RTVSPropertyOp30
 70
     0
102
RTVSPropertyOp31
 70
     0
102
RTVSPropertyOp32
 70
     0
102
RTVSPropertyOp33
 70
     0
102
RTVSPropertyOp34
 70
     0
102
RTVSPropertyOp35
 70
     0
102
RTVSPropertyOp36
 70
     0
102
RTVSPropertyOp37
 70
     0
102
RTVSPropertyOp38
 70
     0
102
RTVSPropertyOp39
 70
     0
102
RTVSPropertyOp40
 70
     0
102
RTVSPropertyOp41
 70
     0
102
RTVSPropertyOp42
 70
     0
102
RTVSPropertyOp43
 70
     0
102
RTVSPropertyOp44
 70
     0
102
RTVSPropertyOp45
 70
     0
102
RTVSPropertyOp46
 70
     0
102
RTVSPropertyOp47
 70
     0
102
RTVSPropertyOp48
 70
     0
102
RTVSPropertyOp49
 70
     0
102
RTVSPropertyOp50
 70
     0
102
RTVSPropertyOp51
 70
     0
102
RTVSPropertyOp52
 70
     0
102
RTVSPropertyOp53
 70
     0
102
RTVSPropertyOp54
 70
     0
102
RTVSPropertyOp55
 70
     0
102
RTVSPropertyOp56
 70
     0
102
RTVSPropertyOp57
 70
     0
102
RTVSPropertyOp58
 70
     0
102
RTVSPropertyOp59
 70
     0
102
RTVSPropertyOp60
 70
     0
102
RTVSPropertyOp61
 70
     0
102
RTVSPropertyOp62
 70
     0
  0
XRECORD
  5
21C
102
{ACAD_REACTORS
330
21B
102
}
330
21B
100
AcDbXrecord
280
     1
102
RTVSPost2010Prop28
280
     0
102
RTVSPost2010PropOp28
 70
     1
102
RTVSPost2010Prop29
280
     1
102
RTVSPost2010PropOp29
 70
     1
102
RTVSPost2010Prop30
280
     1
102
RTVSPost2010PropOp30
 70
     1
102
RTVSPost2010Prop31
280
     0
102
RTVSPost2010PropOp31
 70
     1
102
RTVSPost2010Prop32
280
     0
102
RTVSPost2010PropOp32
 70
     1
102
RTVSPost2010Prop33
280
     0
102
RTVSPost2010PropOp33
 70
     1
102
RTVSPost2010Prop34
280
     0
102
RTVSPost2010PropOp34
 70
     1
102
RTVSPost2010Prop35
280
     0
102
RTVSPost2010PropOp35
 70
     1
102
RTVSPost2010Prop36
280
     0
102
RTVSPost2010PropOp36
 70
     1
102
RTVSPost2010Prop37
 90
       50
102
RTVSPost2010PropOp37
 70
     1
102
RTVSPost2010Prop38
140
0.0
102
RTVSPost2010PropOp38
 70
     1
102
RTVSPost2010Prop39
140
1.0
102
RTVSPost2010PropOp39
 70
     1
102
RTVSPost2010Prop40
 90
        0
102
RTVSPost2010PropOp40
 70
     1
102
RTVSPost2010Prop41ColorIndex
 90
       18
102
RTVSPost2010Prop41ColorRGB
 90
        0
102
RTVSPost2010PropOp41
 70
     1
102
RTVSPost2010Prop42
 90
       50
102
RTVSPost2010PropOp42
 70
     1
102
RTVSPost2010Prop43
 90
        3
102
RTVSPost2010PropOp43
 70
     1
102
RTVSPost2010Prop44ColorIndex
 90
        5
102
RTVSPost2010Prop44ColorRGB
 90
      255
102
RTVSPost2010PropOp44
 70
     1
102
RTVSPost2010Prop45
280
     0
102
RTVSPost2010PropOp45
 70
     1
102
RTVSPost2010Prop46
 90
       50
102
RTVSPost2010PropOp46
 70
     1
102
RTVSPost2010Prop47
 90
       50
102
RTVSPost2010PropOp47
 70
     1
102
RTVSPost2010Prop48
 90
       50
102
RTVSPost2010PropOp48
 70
     1
102
RTVSPost2010Prop49
280
     0
102
RTVSPost2010PropOp49
 70
     1
102
RTVSPost2010Prop50
 90
       50
102
RTVSPost2010PropOp50
 70
     1
102
RTVSPost2010Prop51ColorIndex
 90
      256
102
RTVSPost2010Prop51ColorRGB
 90
-16777216
102
RTVSPost2010PropOp51
 70
     0
102
RTVSPost2010Prop52
140
1.0
102
RTVSPost2010PropOp52
 70
     0
102
RTVSPost2010Prop53
 90
        2
102
RTVSPost2010PropOp53
 70
     1
102
RTVSPost2010Prop54
  1
strokes_ogs.tif
102
RTVSPost2010PropOp54
 70
     1
102
RTVSPost2010Prop55
280
     0
102
RTVSPost2010PropOp55
 70
     1
102
RTVSPost2010Prop56
140
1.0
102
RTVSPost2010PropOp56
 70
     1
102
RTVSPost2010Prop57
140
1.0
102
RTVSPost2010PropOp57
 70
     1
102
RTVSPropertyOp0
 70
     1
102
RTVSPropertyOp1
 70
     1
102
RTVSPropertyOp2
 70
     1
102
RTVSPropertyOp3
 70
     1
102
RTVSPropertyOp4
 70
     1
102
RTVSPropertyOp5
 70
     1
102
RTVSPropertyOp6
 70
     1
102
RTVSPropertyOp7
 70
     1
102
RTVSPropertyOp8
 70
     1
102
RTVSPropertyOp9
 70
     1
102
RTVSPropertyOp10
 70
     1
102
RTVSPropertyOp11
 70
     1
102
RTVSPropertyOp12
 70
     1
102
RTVSPropertyOp13
 70
     1
102
RTVSPropertyOp14
 70
     1
102
RTVSPropertyOp15
 70
     1
102
RTVSPropertyOp16
 70
     1
102
RTVSPropertyOp17
 70
     1
102
RTVSPropertyOp18
 70
     1
102
RTVSPropertyOp19
 70
     1
102
RTVSPropertyOp20
 70
     1
102
RTVSPropertyOp21
 70
     1
102
RTVSPropertyOp22
 70
     1
102
RTVSPropertyOp23
 70
     1
102
RTVSPropertyOp24
 70
     1
102
RTVSPropertyOp25
 70
     1
102
RTVSPropertyOp26
 70
     1
102
RTVSPropertyOp27
 70
     1
102
RTVSPropertyOp28
 70
     1
102
RTVSPropertyOp29
 70
     1
102
RTVSPropertyOp30
 70
     1
102
RTVSPropertyOp31
 70
     1
102
RTVSPropertyOp32
 70
     1
102
RTVSPropertyOp33
 70
     1
102
RTVSPropertyOp34
 70
     1
102
RTVSPropertyOp35
 70
     1
102
RTVSPropertyOp36
 70
     1
102
RTVSPropertyOp37
 70
     1
102
RTVSPropertyOp38
 70
     1
102
RTVSPropertyOp39
 70
     1
102
RTVSPropertyOp40
 70
     1
102
RTVSPropertyOp41
 70
     1
102
RTVSPropertyOp42
 70
     1
102
RTVSPropertyOp43
 70
     1
102
RTVSPropertyOp44
 70
     1
102
RTVSPropertyOp45
 70
     1
102
RTVSPropertyOp46
 70
     1
102
RTVSPropertyOp47
 70
     1
102
RTVSPropertyOp48
 70
     1
102
RTVSPropertyOp49
 70
     1
102
RTVSPropertyOp50
 70
     1
102
RTVSPropertyOp51
 70
     0
102
RTVSPropertyOp52
 70
     0
102
RTVSPropertyOp53
 70
     1
102
RTVSPropertyOp54
 70
     1
102
RTVSPropertyOp55
 70
     1
102
RTVSPropertyOp56
 70
     1
102
RTVSPropertyOp57
 70
     1
102
RTVSPropertyOp58
 70
     1
102
RTVSPropertyOp59
 70
     1
102
RTVSPropertyOp60
 70
     1
102
RTVSPropertyOp61
 70
     1
102
RTVSPropertyOp62
 70
     1
  0
XRECORD
  5
22E
102
{ACAD_REACTORS
330
22D
102
}
330
22D
100
AcDbXrecord
280
     1
102
RTVSPost2010Prop28
280
     0
102
RTVSPost2010PropOp28
 70
     0
102
RTVSPost2010Prop29
280
     1
102
RTVSPost2010PropOp29
 70
     0
102
RTVSPost2010Prop30
280
     1
102
RTVSPost2010PropOp30
 70
     0
102
RTVSPost2010Prop31
280
     0
102
RTVSPost2010PropOp31
 70
     0
102
RTVSPost2010Prop32
280
     0
102
RTVSPost2010PropOp32
 70
     0
102
RTVSPost2010Prop33
280
     0
102
RTVSPost2010PropOp33
 70
     0
102
RTVSPost2010Prop34
280
     0
102
RTVSPost2010PropOp34
 70
     0
102
RTVSPost2010Prop35
280
     0
102
RTVSPost2010PropOp35
 70
     0
102
RTVSPost2010Prop36
280
     0
102
RTVSPost2010PropOp36
 70
     0
102
RTVSPost2010Prop37
 90
       50
102
RTVSPost2010PropOp37
 70
     0
102
RTVSPost2010Prop38
140
0.0
102
RTVSPost2010PropOp38
 70
     0
102
RTVSPost2010Prop39
140
1.0
102
RTVSPost2010PropOp39
 70
     0
102
RTVSPost2010Prop40
 90
        0
102
RTVSPost2010PropOp40
 70
     0
102
RTVSPost2010Prop41ColorIndex
 90
       18
102
RTVSPost2010Prop41ColorRGB
 90
        0
102
RTVSPost2010PropOp41
 70
     0
102
RTVSPost2010Prop42
 90
       50
102
RTVSPost2010PropOp42
 70
     0
102
RTVSPost2010Prop43
 90
        3
102
RTVSPost2010PropOp43
 70
     0
102
RTVSPost2010Prop44ColorIndex
 90
        5
102
RTVSPost2010Prop44ColorRGB
 90
      255
102
RTVSPost2010PropOp44
 70
     0
102
RTVSPost2010Prop45
280
     0
102
RTVSPost2010PropOp45
 70
     0
102
RTVSPost2010Prop46
 90
       50
102
RTVSPost2010PropOp46
 70
     0
102
RTVSPost2010Prop47
 90
       50
102
RTVSPost2010PropOp47
 70
     0
102
RTVSPost2010Prop48
 90
       50
102
RTVSPost2010PropOp48
 70
     0
102
RTVSPost2010Prop49
280
     0
102
RTVSPost2010PropOp49
 70
     0
102
RTVSPost2010Prop50
 90
       50
102
RTVSPost2010PropOp50
 70
     0
102
RTVSPost2010Prop51ColorIndex
 90
      256
102
RTVSPost2010Prop51ColorRGB
 90
-16777216
102
RTVSPost2010PropOp51
 70
     0
102
RTVSPost2010Prop52
140
1.0
102
RTVSPost2010PropOp52
 70
     0
102
RTVSPost2010Prop53
 90
        2
102
RTVSPost2010PropOp53
 70
     0
102
RTVSPost2010Prop54
  1
strokes_ogs.tif
102
RTVSPost2010PropOp54
 70
     0
102
RTVSPost2010Prop55
280
     0
102
RTVSPost2010PropOp55
 70
     0
102
RTVSPost2010Prop56
140
1.0
102
RTVSPost2010PropOp56
 70
     0
102
RTVSPost2010Prop57
140
1.0
102
RTVSPost2010PropOp57
 70
     0
102
RTVSPropertyOp0
 70
     0
102
RTVSPropertyOp1
 70
     0
102
RTVSPropertyOp2
 70
     0
102
RTVSPropertyOp3
 70
     0
102
RTVSPropertyOp4
 70
     0
102
RTVSPropertyOp5
 70
     0
102
RTVSPropertyOp6
 70
     0
102
RTVSPropertyOp7
 70
     0
102
RTVSPropertyOp8
 70
     0
102
RTVSPropertyOp9
 70
     0
102
RTVSPropertyOp10
 70
     0
102
RTVSPropertyOp11
 70
     0
102
RTVSPropertyOp12
 70
     0
102
RTVSPropertyOp13
 70
     0
102
RTVSPropertyOp14
 70
     2
102
RTVSPropertyOp15
 70
     0
102
RTVSPropertyOp16
 70
     0
102
RTVSPropertyOp17
 70
     0
102
RTVSPropertyOp18
 70
     0
102
RTVSPropertyOp19
 70
     0
102
RTVSPropertyOp20
 70
     0
102
RTVSPropertyOp21
 70
     0
102
RTVSPropertyOp22
 70
     0
102
RTVSPropertyOp23
 70
     0
102
RTVSPropertyOp24
 70
     0
102
RTVSPropertyOp25
 70
     0
102
RTVSPropertyOp26
 70
     0
102
RTVSPropertyOp27
 70
     0
102
RTVSPropertyOp28
 70
     0
102
RTVSPropertyOp29
 70
     0
102
RTVSPropertyOp30
 70
     0
102
RTVSPropertyOp31
 70
     0
102
RTVSPropertyOp32
 70
     0
102
RTVSPropertyOp33
 70
     0
102
RTVSPropertyOp34
 70
     0
102
RTVSPropertyOp35
 70
     0
102
RTVSPropertyOp36
 70
     0
102
RTVSPropertyOp37
 70
     0
102
RTVSPropertyOp38
 70
     0
102
RTVSPropertyOp39
 70
     0
102
RTVSPropertyOp40
 70
     0
102
RTVSPropertyOp41
 70
     0
102
RTVSPropertyOp42
 70
     0
102
RTVSPropertyOp43
 70
     0
102
RTVSPropertyOp44
 70
     0
102
RTVSPropertyOp45
 70
     0
102
RTVSPropertyOp46
 70
     0
102
RTVSPropertyOp47
 70
     0
102
RTVSPropertyOp48
 70
     0
102
RTVSPropertyOp49
 70
     0
102
RTVSPropertyOp50
 70
     0
102
RTVSPropertyOp51
 70
     0
102
RTVSPropertyOp52
 70
     0
102
RTVSPropertyOp53
 70
     0
102
RTVSPropertyOp54
 70
     0
102
RTVSPropertyOp55
 70
     0
102
RTVSPropertyOp56
 70
     0
102
RTVSPropertyOp57
 70
     0
102
RTVSPropertyOp58
 70
     0
102
RTVSPropertyOp59
 70
     0
102
RTVSPropertyOp60
 70
     0
102
RTVSPropertyOp61
 70
     0
102
RTVSPropertyOp62
 70
     0
  0
XRECORD
  5
214
102
{ACAD_REACTORS
330
213
102
}
330
213
100
AcDbXrecord
280
     1
102
RTVSPost2010Prop28
280
     0
102
RTVSPost2010PropOp28
 70
     1
102
RTVSPost2010Prop29
280
     1
102
RTVSPost2010PropOp29
 70
     1
102
RTVSPost2010Prop30
280
     1
102
RTVSPost2010PropOp30
 70
     1
102
RTVSPost2010Prop31
280
     0
102
RTVSPost2010PropOp31
 70
     1
102
RTVSPost2010Prop32
280
     0
102
RTVSPost2010PropOp32
 70
     1
102
RTVSPost2010Prop33
280
     0
102
RTVSPost2010PropOp33
 70
     1
102
RTVSPost2010Prop34
280
     0
102
RTVSPost2010PropOp34
 70
     1
102
RTVSPost2010Prop35
280
     0
102
RTVSPost2010PropOp35
 70
     1
102
RTVSPost2010Prop36
280
     0
102
RTVSPost2010PropOp36
 70
     1
102
RTVSPost2010Prop37
 90
       50
102
RTVSPost2010PropOp37
 70
     1
102
RTVSPost2010Prop38
140
0.0
102
RTVSPost2010PropOp38
 70
     1
102
RTVSPost2010Prop39
140
1.0
102
RTVSPost2010PropOp39
 70
     1
102
RTVSPost2010Prop40
 90
        0
102
RTVSPost2010PropOp40
 70
     1
102
RTVSPost2010Prop41ColorIndex
 90
       18
102
RTVSPost2010Prop41ColorRGB
 90
        0
102
RTVSPost2010PropOp41
 70
     1
102
RTVSPost2010Prop42
 90
       50
102
RTVSPost2010PropOp42
 70
     1
102
RTVSPost2010Prop43
 90
        3
102
RTVSPost2010PropOp43
 70
     1
102
RTVSPost2010Prop44ColorIndex
 90
        5
102
RTVSPost2010Prop44ColorRGB
 90
      255
102
RTVSPost2010PropOp44
 70
     1
102
RTVSPost2010Prop45
280
     0
102
RTVSPost2010PropOp45
 70
     1
102
RTVSPost2010Prop46
 90
       50
102
RTVSPost2010PropOp46
 70
     1
102
RTVSPost2010Prop47
 90
       50
102
RTVSPost2010PropOp47
 70
     1
102
RTVSPost2010Prop48
 90
       50
102
RTVSPost2010PropOp48
 70
     1
102
RTVSPost2010Prop49
280
     0
102
RTVSPost2010PropOp49
 70
     1
102
RTVSPost2010Prop50
 90
       50
102
RTVSPost2010PropOp50
 70
     1
102
RTVSPost2010Prop51ColorIndex
 90
      256
102
RTVSPost2010Prop51ColorRGB
 90
-16777216
102
RTVSPost2010PropOp51
 70
     0
102
RTVSPost2010Prop52
140
1.0
102
RTVSPost2010PropOp52
 70
     0
102
RTVSPost2010Prop53
 90
        2
102
RTVSPost2010PropOp53
 70
     1
102
RTVSPost2010Prop54
  1
strokes_ogs.tif
102
RTVSPost2010PropOp54
 70
     1
102
RTVSPost2010Prop55
280
     0
102
RTVSPost2010PropOp55
 70
     1
102
RTVSPost2010Prop56
140
1.0
102
RTVSPost2010PropOp56
 70
     1
102
RTVSPost2010Prop57
140
1.0
102
RTVSPost2010PropOp57
 70
     1
102
RTVSPropertyOp0
 70
     1
102
RTVSPropertyOp1
 70
     1
102
RTVSPropertyOp2
 70
     1
102
RTVSPropertyOp3
 70
     1
102
RTVSPropertyOp4
 70
     1
102
RTVSPropertyOp5
 70
     1
102
RTVSPropertyOp6
 70
     1
102
RTVSPropertyOp7
 70
     1
102
RTVSPropertyOp8
 70
     1
102
RTVSPropertyOp9
 70
     1
102
RTVSPropertyOp10
 70
     1
102
RTVSPropertyOp11
 70
     1
102
RTVSPropertyOp12
 70
     1
102
RTVSPropertyOp13
 70
     1
102
RTVSPropertyOp14
 70
     1
102
RTVSPropertyOp15
 70
     1
102
RTVSPropertyOp16
 70
     1
102
RTVSPropertyOp17
 70
     1
102
RTVSPropertyOp18
 70
     1
102
RTVSPropertyOp19
 70
     1
102
RTVSPropertyOp20
 70
     1
102
RTVSPropertyOp21
 70
     1
102
RTVSPropertyOp22
 70
     1
102
RTVSPropertyOp23
 70
     1
102
RTVSPropertyOp24
 70
     1
102
RTVSPropertyOp25
 70
     1
102
RTVSPropertyOp26
 70
     1
102
RTVSPropertyOp27
 70
     1
102
RTVSPropertyOp28
 70
     1
102
RTVSPropertyOp29
 70
     1
102
RTVSPropertyOp30
 70
     1
102
RTVSPropertyOp31
 70
     1
102
RTVSPropertyOp32
 70
     1
102
RTVSPropertyOp33
 70
     1
102
RTVSPropertyOp34
 70
     1
102
RTVSPropertyOp35
 70
     1
102
RTVSPropertyOp36
 70
     1
102
RTVSPropertyOp37
 70
     1
102
RTVSPropertyOp38
 70
     1
102
RTVSPropertyOp39
 70
     1
102
RTVSPropertyOp40
 70
     1
102
RTVSPropertyOp41
 70
     1
102
RTVSPropertyOp42
 70
     1
102
RTVSPropertyOp43
 70
     1
102
RTVSPropertyOp44
 70
     1
102
RTVSPropertyOp45
 70
     1
102
RTVSPropertyOp46
 70
     1
102
RTVSPropertyOp47
 70
     1
102
RTVSPropertyOp48
 70
     1
102
RTVSPropertyOp49
 70
     1
102
RTVSPropertyOp50
 70
     1
102
RTVSPropertyOp51
 70
     0
102
RTVSPropertyOp52
 70
     0
102
RTVSPropertyOp53
 70
     1
102
RTVSPropertyOp54
 70
     1
102
RTVSPropertyOp55
 70
     1
102
RTVSPropertyOp56
 70
     1
102
RTVSPropertyOp57
 70
     1
102
RTVSPropertyOp58
 70
     1
102
RTVSPropertyOp59
 70
     1
102
RTVSPropertyOp60
 70
     1
102
RTVSPropertyOp61
 70
     1
102
RTVSPropertyOp62
 70
     1
  0
XRECORD
  5
22A
102
{ACAD_REACTORS
330
229
102
}
330
229
100
AcDbXrecord
280
     1
102
RTVSPost2010Prop28
280
     0
102
RTVSPost2010PropOp28
 70
     1
102
RTVSPost2010Prop29
280
     1
102
RTVSPost2010PropOp29
 70
     1
102
RTVSPost2010Prop30
280
     1
102
RTVSPost2010PropOp30
 70
     1
102
RTVSPost2010Prop31
280
     0
102
RTVSPost2010PropOp31
 70
     1
102
RTVSPost2010Prop32
280
     0
102
RTVSPost2010PropOp32
 70
     1
102
RTVSPost2010Prop33
280
     0
102
RTVSPost2010PropOp33
 70
     1
102
RTVSPost2010Prop34
280
     0
102
RTVSPost2010PropOp34
 70
     1
102
RTVSPost2010Prop35
280
     0
102
RTVSPost2010PropOp35
 70
     1
102
RTVSPost2010Prop36
280
     0
102
RTVSPost2010PropOp36
 70
     1
102
RTVSPost2010Prop37
 90
       50
102
RTVSPost2010PropOp37
 70
     1
102
RTVSPost2010Prop38
140
0.0
102
RTVSPost2010PropOp38
 70
     1
102
RTVSPost2010Prop39
140
1.0
102
RTVSPost2010PropOp39
 70
     1
102
RTVSPost2010Prop40
 90
        0
102
RTVSPost2010PropOp40
 70
     1
102
RTVSPost2010Prop41ColorIndex
 90
       18
102
RTVSPost2010Prop41ColorRGB
 90
        0
102
RTVSPost2010PropOp41
 70
     1
102
RTVSPost2010Prop42
 90
       50
102
RTVSPost2010PropOp42
 70
     1
102
RTVSPost2010Prop43
 90
        3
102
RTVSPost2010PropOp43
 70
     1
102
RTVSPost2010Prop44ColorIndex
 90
        5
102
RTVSPost2010Prop44ColorRGB
 90
      255
102
RTVSPost2010PropOp44
 70
     1
102
RTVSPost2010Prop45
280
     0
102
RTVSPost2010PropOp45
 70
     1
102
RTVSPost2010Prop46
 90
       50
102
RTVSPost2010PropOp46
 70
     1
102
RTVSPost2010Prop47
 90
       50
102
RTVSPost2010PropOp47
 70
     1
102
RTVSPost2010Prop48
 90
       50
102
RTVSPost2010PropOp48
 70
     1
102
RTVSPost2010Prop49
280
     0
102
RTVSPost2010PropOp49
 70
     1
102
RTVSPost2010Prop50
 90
       50
102
RTVSPost2010PropOp50
 70
     1
102
RTVSPost2010Prop51ColorIndex
 90
      256
102
RTVSPost2010Prop51ColorRGB
 90
-16777216
102
RTVSPost2010PropOp51
 70
     0
102
RTVSPost2010Prop52
140
1.0
102
RTVSPost2010PropOp52
 70
     0
102
RTVSPost2010Prop53
 90
        2
102
RTVSPost2010PropOp53
 70
     1
102
RTVSPost2010Prop54
  1
strokes_ogs.tif
102
RTVSPost2010PropOp54
 70
     1
102
RTVSPost2010Prop55
280
     0
102
RTVSPost2010PropOp55
 70
     1
102
RTVSPost2010Prop56
140
1.0
102
RTVSPost2010PropOp56
 70
     1
102
RTVSPost2010Prop57
140
1.0
102
RTVSPost2010PropOp57
 70
     1
102
RTVSPropertyOp0
 70
     1
102
RTVSPropertyOp1
 70
     1
102
RTVSPropertyOp2
 70
     1
102
RTVSPropertyOp3
 70
     1
102
RTVSPropertyOp4
 70
     1
102
RTVSPropertyOp5
 70
     1
102
RTVSPropertyOp6
 70
     1
102
RTVSPropertyOp7
 70
     1
102
RTVSPropertyOp8
 70
     1
102
RTVSPropertyOp9
 70
     1
102
RTVSPropertyOp10
 70
     1
102
RTVSPropertyOp11
 70
     1
102
RTVSPropertyOp12
 70
     1
102
RTVSPropertyOp13
 70
     1
102
RTVSPropertyOp14
 70
     1
102
RTVSPropertyOp15
 70
     1
102
RTVSPropertyOp16
 70
     1
102
RTVSPropertyOp17
 70
     1
102
RTVSPropertyOp18
 70
     1
102
RTVSPropertyOp19
 70
     1
102
RTVSPropertyOp20
 70
     1
102
RTVSPropertyOp21
 70
     1
102
RTVSPropertyOp22
 70
     1
102
RTVSPropertyOp23
 70
     1
102
RTVSPropertyOp24
 70
     1
102
RTVSPropertyOp25
 70
     1
102
RTVSPropertyOp26
 70
     1
102
RTVSPropertyOp27
 70
     1
102
RTVSPropertyOp28
 70
     1
102
RTVSPropertyOp29
 70
     1
102
RTVSPropertyOp30
 70
     1
102
RTVSPropertyOp31
 70
     1
102
RTVSPropertyOp32
 70
     1
102
RTVSPropertyOp33
 70
     1
102
RTVSPropertyOp34
 70
     1
102
RTVSPropertyOp35
 70
     1
102
RTVSPropertyOp36
 70
     1
102
RTVSPropertyOp37
 70
     1
102
RTVSPropertyOp38
 70
     1
102
RTVSPropertyOp39
 70
     1
102
RTVSPropertyOp40
 70
     1
102
RTVSPropertyOp41
 70
     1
102
RTVSPropertyOp42
 70
     1
102
RTVSPropertyOp43
 70
     1
102
RTVSPropertyOp44
 70
     1
102
RTVSPropertyOp45
 70
     1
102
RTVSPropertyOp46
 70
     1
102
RTVSPropertyOp47
 70
     1
102
RTVSPropertyOp48
 70
     1
102
RTVSPropertyOp49
 70
     1
102
RTVSPropertyOp50
 70
     1
102
RTVSPropertyOp51
 70
     0
102
RTVSPropertyOp52
 70
     0
102
RTVSPropertyOp53
 70
     1
102
RTVSPropertyOp54
 70
     1
102
RTVSPropertyOp55
 70
     1
102
RTVSPropertyOp56
 70
     1
102
RTVSPropertyOp57
 70
     1
102
RTVSPropertyOp58
 70
     1
102
RTVSPropertyOp59
 70
     1
102
RTVSPropertyOp60
 70
     1
102
RTVSPropertyOp61
 70
     1
102
RTVSPropertyOp62
 70
     1
  0
XRECORD
  5
228
102
{ACAD_REACTORS
330
227
102
}
330
227
100
AcDbXrecord
280
     1
102
RTVSPost2010Prop28
280
     0
102
RTVSPost2010PropOp28
 70
     1
102
RTVSPost2010Prop29
280
     1
102
RTVSPost2010PropOp29
 70
     1
102
RTVSPost2010Prop30
280
     1
102
RTVSPost2010PropOp30
 70
     1
102
RTVSPost2010Prop31
280
     0
102
RTVSPost2010PropOp31
 70
     1
102
RTVSPost2010Prop32
280
     0
102
RTVSPost2010PropOp32
 70
     1
102
RTVSPost2010Prop33
280
     0
102
RTVSPost2010PropOp33
 70
     1
102
RTVSPost2010Prop34
280
     0
102
RTVSPost2010PropOp34
 70
     1
102
RTVSPost2010Prop35
280
     0
102
RTVSPost2010PropOp35
 70
     1
102
RTVSPost2010Prop36
280
     0
102
RTVSPost2010PropOp36
 70
     1
102
RTVSPost2010Prop37
 90
       50
102
RTVSPost2010PropOp37
 70
     1
102
RTVSPost2010Prop38
140
0.0
102
RTVSPost2010PropOp38
 70
     1
102
RTVSPost2010Prop39
140
1.0
102
RTVSPost2010PropOp39
 70
     1
102
RTVSPost2010Prop40
 90
        0
102
RTVSPost2010PropOp40
 70
     1
102
RTVSPost2010Prop41ColorIndex
 90
       18
102
RTVSPost2010Prop41ColorRGB
 90
        0
102
RTVSPost2010PropOp41
 70
     1
102
RTVSPost2010Prop42
 90
       50
102
RTVSPost2010PropOp42
 70
     1
102
RTVSPost2010Prop43
 90
        3
102
RTVSPost2010PropOp43
 70
     1
102
RTVSPost2010Prop44ColorIndex
 90
        5
102
RTVSPost2010Prop44ColorRGB
 90
      255
102
RTVSPost2010PropOp44
 70
     1
102
RTVSPost2010Prop45
280
     0
102
RTVSPost2010PropOp45
 70
     1
102
RTVSPost2010Prop46
 90
       50
102
RTVSPost2010PropOp46
 70
     1
102
RTVSPost2010Prop47
 90
       50
102
RTVSPost2010PropOp47
 70
     1
102
RTVSPost2010Prop48
 90
       50
102
RTVSPost2010PropOp48
 70
     1
102
RTVSPost2010Prop49
280
     0
102
RTVSPost2010PropOp49
 70
     1
102
RTVSPost2010Prop50
 90
       50
102
RTVSPost2010PropOp50
 70
     1
102
RTVSPost2010Prop51ColorIndex
 90
      256
102
RTVSPost2010Prop51ColorRGB
 90
-16777216
102
RTVSPost2010PropOp51
 70
     0
102
RTVSPost2010Prop52
140
1.0
102
RTVSPost2010PropOp52
 70
     0
102
RTVSPost2010Prop53
 90
        2
102
RTVSPost2010PropOp53
 70
     1
102
RTVSPost2010Prop54
  1
strokes_ogs.tif
102
RTVSPost2010PropOp54
 70
     1
102
RTVSPost2010Prop55
280
     0
102
RTVSPost2010PropOp55
 70
     1
102
RTVSPost2010Prop56
140
1.0
102
RTVSPost2010PropOp56
 70
     1
102
RTVSPost2010Prop57
140
1.0
102
RTVSPost2010PropOp57
 70
     1
102
RTVSPropertyOp0
 70
     1
102
RTVSPropertyOp1
 70
     1
102
RTVSPropertyOp2
 70
     1
102
RTVSPropertyOp3
 70
     1
102
RTVSPropertyOp4
 70
     1
102
RTVSPropertyOp5
 70
     1
102
RTVSPropertyOp6
 70
     1
102
RTVSPropertyOp7
 70
     1
102
RTVSPropertyOp8
 70
     1
102
RTVSPropertyOp9
 70
     1
102
RTVSPropertyOp10
 70
     1
102
RTVSPropertyOp11
 70
     1
102
RTVSPropertyOp12
 70
     1
102
RTVSPropertyOp13
 70
     1
102
RTVSPropertyOp14
 70
     1
102
RTVSPropertyOp15
 70
     1
102
RTVSPropertyOp16
 70
     1
102
RTVSPropertyOp17
 70
     1
102
RTVSPropertyOp18
 70
     1
102
RTVSPropertyOp19
 70
     1
102
RTVSPropertyOp20
 70
     1
102
RTVSPropertyOp21
 70
     1
102
RTVSPropertyOp22
 70
     1
102
RTVSPropertyOp23
 70
     1
102
RTVSPropertyOp24
 70
     1
102
RTVSPropertyOp25
 70
     1
102
RTVSPropertyOp26
 70
     1
102
RTVSPropertyOp27
 70
     1
102
RTVSPropertyOp28
 70
     1
102
RTVSPropertyOp29
 70
     1
102
RTVSPropertyOp30
 70
     1
102
RTVSPropertyOp31
 70
     1
102
RTVSPropertyOp32
 70
     1
102
RTVSPropertyOp33
 70
     1
102
RTVSPropertyOp34
 70
     1
102
RTVSPropertyOp35
 70
     1
102
RTVSPropertyOp36
 70
     1
102
RTVSPropertyOp37
 70
     1
102
RTVSPropertyOp38
 70
     1
102
RTVSPropertyOp39
 70
     1
102
RTVSPropertyOp40
 70
     1
102
RTVSPropertyOp41
 70
     1
102
RTVSPropertyOp42
 70
     1
102
RTVSPropertyOp43
 70
     1
102
RTVSPropertyOp44
 70
     1
102
RTVSPropertyOp45
 70
     1
102
RTVSPropertyOp46
 70
     1
102
RTVSPropertyOp47
 70
     1
102
RTVSPropertyOp48
 70
     1
102
RTVSPropertyOp49
 70
     1
102
RTVSPropertyOp50
 70
     1
102
RTVSPropertyOp51
 70
     0
102
RTVSPropertyOp52
 70
     0
102
RTVSPropertyOp53
 70
     1
102
RTVSPropertyOp54
 70
     1
102
RTVSPropertyOp55
 70
     1
102
RTVSPropertyOp56
 70
     1
102
RTVSPropertyOp57
 70
     1
102
RTVSPropertyOp58
 70
     1
102
RTVSPropertyOp59
 70
     1
102
RTVSPropertyOp60
 70
     1
102
RTVSPropertyOp61
 70
     1
102
RTVSPropertyOp62
 70
     1
  0
XRECORD
  5
222
102
{ACAD_REACTORS
330
221
102
}
330
221
100
AcDbXrecord
280
     1
102
RTVSPost2010Prop28
280
     0
102
RTVSPost2010PropOp28
 70
     1
102
RTVSPost2010Prop29
280
     1
102
RTVSPost2010PropOp29
 70
     1
102
RTVSPost2010Prop30
280
     1
102
RTVSPost2010PropOp30
 70
     1
102
RTVSPost2010Prop31
280
     0
102
RTVSPost2010PropOp31
 70
     1
102
RTVSPost2010Prop32
280
     0
102
RTVSPost2010PropOp32
 70
     1
102
RTVSPost2010Prop33
280
     0
102
RTVSPost2010PropOp33
 70
     1
102
RTVSPost2010Prop34
280
     0
102
RTVSPost2010PropOp34
 70
     1
102
RTVSPost2010Prop35
280
     0
102
RTVSPost2010PropOp35
 70
     1
102
RTVSPost2010Prop36
280
     0
102
RTVSPost2010PropOp36
 70
     1
102
RTVSPost2010Prop37
 90
       50
102
RTVSPost2010PropOp37
 70
     1
102
RTVSPost2010Prop38
140
0.0
102
RTVSPost2010PropOp38
 70
     1
102
RTVSPost2010Prop39
140
1.0
102
RTVSPost2010PropOp39
 70
     1
102
RTVSPost2010Prop40
 90
        0
102
RTVSPost2010PropOp40
 70
     1
102
RTVSPost2010Prop41ColorIndex
 90
       18
102
RTVSPost2010Prop41ColorRGB
 90
        0
102
RTVSPost2010PropOp41
 70
     1
102
RTVSPost2010Prop42
 90
       50
102
RTVSPost2010PropOp42
 70
     1
102
RTVSPost2010Prop43
 90
        3
102
RTVSPost2010PropOp43
 70
     1
102
RTVSPost2010Prop44ColorIndex
 90
        5
102
RTVSPost2010Prop44ColorRGB
 90
      255
102
RTVSPost2010PropOp44
 70
     1
102
RTVSPost2010Prop45
280
     0
102
RTVSPost2010PropOp45
 70
     1
102
RTVSPost2010Prop46
 90
       50
102
RTVSPost2010PropOp46
 70
     1
102
RTVSPost2010Prop47
 90
       50
102
RTVSPost2010PropOp47
 70
     1
102
RTVSPost2010Prop48
 90
       50
102
RTVSPost2010PropOp48
 70
     1
102
RTVSPost2010Prop49
280
     0
102
RTVSPost2010PropOp49
 70
     1
102
RTVSPost2010Prop50
 90
       50
102
RTVSPost2010PropOp50
 70
     1
102
RTVSPost2010Prop51ColorIndex
 90
      256
102
RTVSPost2010Prop51ColorRGB
 90
-16777216
102
RTVSPost2010PropOp51
 70
     0
102
RTVSPost2010Prop52
140
1.0
102
RTVSPost2010PropOp52
 70
     0
102
RTVSPost2010Prop53
 90
        2
102
RTVSPost2010PropOp53
 70
     1
102
RTVSPost2010Prop54
  1
strokes_ogs.tif
102
RTVSPost2010PropOp54
 70
     1
102
RTVSPost2010Prop55
280
     0
102
RTVSPost2010PropOp55
 70
     1
102
RTVSPost2010Prop56
140
1.0
102
RTVSPost2010PropOp56
 70
     1
102
RTVSPost2010Prop57
140
1.0
102
RTVSPost2010PropOp57
 70
     1
102
RTVSPropertyOp0
 70
     1
102
RTVSPropertyOp1
 70
     1
102
RTVSPropertyOp2
 70
     1
102
RTVSPropertyOp3
 70
     1
102
RTVSPropertyOp4
 70
     1
102
RTVSPropertyOp5
 70
     1
102
RTVSPropertyOp6
 70
     1
102
RTVSPropertyOp7
 70
     1
102
RTVSPropertyOp8
 70
     1
102
RTVSPropertyOp9
 70
     1
102
RTVSPropertyOp10
 70
     1
102
RTVSPropertyOp11
 70
     1
102
RTVSPropertyOp12
 70
     1
102
RTVSPropertyOp13
 70
     1
102
RTVSPropertyOp14
 70
     1
102
RTVSPropertyOp15
 70
     1
102
RTVSPropertyOp16
 70
     1
102
RTVSPropertyOp17
 70
     1
102
RTVSPropertyOp18
 70
     1
102
RTVSPropertyOp19
 70
     1
102
RTVSPropertyOp20
 70
     1
102
RTVSPropertyOp21
 70
     1
102
RTVSPropertyOp22
 70
     1
102
RTVSPropertyOp23
 70
     1
102
RTVSPropertyOp24
 70
     1
102
RTVSPropertyOp25
 70
     1
102
RTVSPropertyOp26
 70
     1
102
RTVSPropertyOp27
 70
     1
102
RTVSPropertyOp28
 70
     1
102
RTVSPropertyOp29
 70
     1
102
RTVSPropertyOp30
 70
     1
102
RTVSPropertyOp31
 70
     1
102
RTVSPropertyOp32
 70
     1
102
RTVSPropertyOp33
 70
     1
102
RTVSPropertyOp34
 70
     1
102
RTVSPropertyOp35
 70
     1
102
RTVSPropertyOp36
 70
     1
102
RTVSPropertyOp37
 70
     1
102
RTVSPropertyOp38
 70
     1
102
RTVSPropertyOp39
 70
     1
102
RTVSPropertyOp40
 70
     1
102
RTVSPropertyOp41
 70
     1
102
RTVSPropertyOp42
 70
     1
102
RTVSPropertyOp43
 70
     1
102
RTVSPropertyOp44
 70
     1
102
RTVSPropertyOp45
 70
     1
102
RTVSPropertyOp46
 70
     1
102
RTVSPropertyOp47
 70
     1
102
RTVSPropertyOp48
 70
     1
102
RTVSPropertyOp49
 70
     1
102
RTVSPropertyOp50
 70
     1
102
RTVSPropertyOp51
 70
     0
102
RTVSPropertyOp52
 70
     0
102
RTVSPropertyOp53
 70
     1
102
RTVSPropertyOp54
 70
     1
102
RTVSPropertyOp55
 70
     1
102
RTVSPropertyOp56
 70
     1
102
RTVSPropertyOp57
 70
     1
102
RTVSPropertyOp58
 70
     1
102
RTVSPropertyOp59
 70
     1
102
RTVSPropertyOp60
 70
     1
102
RTVSPropertyOp61
 70
     1
102
RTVSPropertyOp62
 70
     1
  0
XRECORD
  5
224
102
{ACAD_REACTORS
330
223
102
}
330
223
100
AcDbXrecord
280
     1
102
RTVSPost2010Prop28
280
     0
102
RTVSPost2010PropOp28
 70
     1
102
RTVSPost2010Prop29
280
     1
102
RTVSPost2010PropOp29
 70
     1
102
RTVSPost2010Prop30
280
     1
102
RTVSPost2010PropOp30
 70
     1
102
RTVSPost2010Prop31
280
     0
102
RTVSPost2010PropOp31
 70
     1
102
RTVSPost2010Prop32
280
     0
102
RTVSPost2010PropOp32
 70
     1
102
RTVSPost2010Prop33
280
     0
102
RTVSPost2010PropOp33
 70
     1
102
RTVSPost2010Prop34
280
     0
102
RTVSPost2010PropOp34
 70
     1
102
RTVSPost2010Prop35
280
     0
102
RTVSPost2010PropOp35
 70
     1
102
RTVSPost2010Prop36
280
     0
102
RTVSPost2010PropOp36
 70
     1
102
RTVSPost2010Prop37
 90
       50
102
RTVSPost2010PropOp37
 70
     1
102
RTVSPost2010Prop38
140
0.0
102
RTVSPost2010PropOp38
 70
     1
102
RTVSPost2010Prop39
140
1.0
102
RTVSPost2010PropOp39
 70
     1
102
RTVSPost2010Prop40
 90
        0
102
RTVSPost2010PropOp40
 70
     1
102
RTVSPost2010Prop41ColorIndex
 90
       18
102
RTVSPost2010Prop41ColorRGB
 90
        0
102
RTVSPost2010PropOp41
 70
     1
102
RTVSPost2010Prop42
 90
       50
102
RTVSPost2010PropOp42
 70
     1
102
RTVSPost2010Prop43
 90
        3
102
RTVSPost2010PropOp43
 70
     1
102
RTVSPost2010Prop44ColorIndex
 90
        5
102
RTVSPost2010Prop44ColorRGB
 90
      255
102
RTVSPost2010PropOp44
 70
     1
102
RTVSPost2010Prop45
280
     0
102
RTVSPost2010PropOp45
 70
     1
102
RTVSPost2010Prop46
 90
       50
102
RTVSPost2010PropOp46
 70
     1
102
RTVSPost2010Prop47
 90
       50
102
RTVSPost2010PropOp47
 70
     1
102
RTVSPost2010Prop48
 90
       50
102
RTVSPost2010PropOp48
 70
     1
102
RTVSPost2010Prop49
280
     0
102
RTVSPost2010PropOp49
 70
     1
102
RTVSPost2010Prop50
 90
       50
102
RTVSPost2010PropOp50
 70
     1
102
RTVSPost2010Prop51ColorIndex
 90
      256
102
RTVSPost2010Prop51ColorRGB
 90
-16777216
102
RTVSPost2010PropOp51
 70
     0
102
RTVSPost2010Prop52
140
1.0
102
RTVSPost2010PropOp52
 70
     0
102
RTVSPost2010Prop53
 90
        2
102
RTVSPost2010PropOp53
 70
     1
102
RTVSPost2010Prop54
  1
strokes_ogs.tif
102
RTVSPost2010PropOp54
 70
     1
102
RTVSPost2010Prop55
280
     0
102
RTVSPost2010PropOp55
 70
     1
102
RTVSPost2010Prop56
140
1.0
102
RTVSPost2010PropOp56
 70
     1
102
RTVSPost2010Prop57
140
1.0
102
RTVSPost2010PropOp57
 70
     1
102
RTVSPropertyOp0
 70
     1
102
RTVSPropertyOp1
 70
     1
102
RTVSPropertyOp2
 70
     1
102
RTVSPropertyOp3
 70
     1
102
RTVSPropertyOp4
 70
     1
102
RTVSPropertyOp5
 70
     1
102
RTVSPropertyOp6
 70
     1
102
RTVSPropertyOp7
 70
     1
102
RTVSPropertyOp8
 70
     1
102
RTVSPropertyOp9
 70
     1
102
RTVSPropertyOp10
 70
     1
102
RTVSPropertyOp11
 70
     1
102
RTVSPropertyOp12
 70
     1
102
RTVSPropertyOp13
 70
     1
102
RTVSPropertyOp14
 70
     1
102
RTVSPropertyOp15
 70
     1
102
RTVSPropertyOp16
 70
     1
102
RTVSPropertyOp17
 70
     1
102
RTVSPropertyOp18
 70
     1
102
RTVSPropertyOp19
 70
     1
102
RTVSPropertyOp20
 70
     1
102
RTVSPropertyOp21
 70
     1
102
RTVSPropertyOp22
 70
     1
102
RTVSPropertyOp23
 70
     1
102
RTVSPropertyOp24
 70
     1
102
RTVSPropertyOp25
 70
     1
102
RTVSPropertyOp26
 70
     1
102
RTVSPropertyOp27
 70
     1
102
RTVSPropertyOp28
 70
     1
102
RTVSPropertyOp29
 70
     1
102
RTVSPropertyOp30
 70
     1
102
RTVSPropertyOp31
 70
     1
102
RTVSPropertyOp32
 70
     1
102
RTVSPropertyOp33
 70
     1
102
RTVSPropertyOp34
 70
     1
102
RTVSPropertyOp35
 70
     1
102
RTVSPropertyOp36
 70
     1
102
RTVSPropertyOp37
 70
     1
102
RTVSPropertyOp38
 70
     1
102
RTVSPropertyOp39
 70
     1
102
RTVSPropertyOp40
 70
     1
102
RTVSPropertyOp41
 70
     1
102
RTVSPropertyOp42
 70
     1
102
RTVSPropertyOp43
 70
     1
102
RTVSPropertyOp44
 70
     1
102
RTVSPropertyOp45
 70
     1
102
RTVSPropertyOp46
 70
     1
102
RTVSPropertyOp47
 70
     1
102
RTVSPropertyOp48
 70
     1
102
RTVSPropertyOp49
 70
     1
102
RTVSPropertyOp50
 70
     1
102
RTVSPropertyOp51
 70
     0
102
RTVSPropertyOp52
 70
     0
102
RTVSPropertyOp53
 70
     1
102
RTVSPropertyOp54
 70
     1
102
RTVSPropertyOp55
 70
     1
102
RTVSPropertyOp56
 70
     1
102
RTVSPropertyOp57
 70
     1
102
RTVSPropertyOp58
 70
     1
102
RTVSPropertyOp59
 70
     1
102
RTVSPropertyOp60
 70
     1
102
RTVSPropertyOp61
 70
     1
102
RTVSPropertyOp62
 70
     1
  0
XRECORD
  5
21A
102
{ACAD_REACTORS
330
219
102
}
330
219
100
AcDbXrecord
280
     1
102
RTVSPost2010Prop28
280
     0
102
RTVSPost2010PropOp28
 70
     1
102
RTVSPost2010Prop29
280
     1
102
RTVSPost2010PropOp29
 70
     1
102
RTVSPost2010Prop30
280
     1
102
RTVSPost2010PropOp30
 70
     1
102
RTVSPost2010Prop31
280
     0
102
RTVSPost2010PropOp31
 70
     1
102
RTVSPost2010Prop32
280
     0
102
RTVSPost2010PropOp32
 70
     1
102
RTVSPost2010Prop33
280
     0
102
RTVSPost2010PropOp33
 70
     1
102
RTVSPost2010Prop34
280
     0
102
RTVSPost2010PropOp34
 70
     1
102
RTVSPost2010Prop35
280
     0
102
RTVSPost2010PropOp35
 70
     1
102
RTVSPost2010Prop36
280
     0
102
RTVSPost2010PropOp36
 70
     1
102
RTVSPost2010Prop37
 90
       50
102
RTVSPost2010PropOp37
 70
     1
102
RTVSPost2010Prop38
140
0.0
102
RTVSPost2010PropOp38
 70
     1
102
RTVSPost2010Prop39
140
1.0
102
RTVSPost2010PropOp39
 70
     1
102
RTVSPost2010Prop40
 90
        0
102
RTVSPost2010PropOp40
 70
     1
102
RTVSPost2010Prop41ColorIndex
 90
       18
102
RTVSPost2010Prop41ColorRGB
 90
        0
102
RTVSPost2010PropOp41
 70
     1
102
RTVSPost2010Prop42
 90
       50
102
RTVSPost2010PropOp42
 70
     1
102
RTVSPost2010Prop43
 90
        3
102
RTVSPost2010PropOp43
 70
     1
102
RTVSPost2010Prop44ColorIndex
 90
        5
102
RTVSPost2010Prop44ColorRGB
 90
      255
102
RTVSPost2010PropOp44
 70
     1
102
RTVSPost2010Prop45
280
     0
102
RTVSPost2010PropOp45
 70
     1
102
RTVSPost2010Prop46
 90
       50
102
RTVSPost2010PropOp46
 70
     1
102
RTVSPost2010Prop47
 90
       50
102
RTVSPost2010PropOp47
 70
     1
102
RTVSPost2010Prop48
 90
       50
102
RTVSPost2010PropOp48
 70
     1
102
RTVSPost2010Prop49
280
     0
102
RTVSPost2010PropOp49
 70
     1
102
RTVSPost2010Prop50
 90
       50
102
RTVSPost2010PropOp50
 70
     1
102
RTVSPost2010Prop51ColorIndex
 90
      256
102
RTVSPost2010Prop51ColorRGB
 90
-16777216
102
RTVSPost2010PropOp51
 70
     0
102
RTVSPost2010Prop52
140
1.0
102
RTVSPost2010PropOp52
 70
     0
102
RTVSPost2010Prop53
 90
        2
102
RTVSPost2010PropOp53
 70
     1
102
RTVSPost2010Prop54
  1
strokes_ogs.tif
102
RTVSPost2010PropOp54
 70
     1
102
RTVSPost2010Prop55
280
     0
102
RTVSPost2010PropOp55
 70
     1
102
RTVSPost2010Prop56
140
1.0
102
RTVSPost2010PropOp56
 70
     1
102
RTVSPost2010Prop57
140
1.0
102
RTVSPost2010PropOp57
 70
     1
102
RTVSPropertyOp0
 70
     1
102
RTVSPropertyOp1
 70
     1
102
RTVSPropertyOp2
 70
     1
102
RTVSPropertyOp3
 70
     1
102
RTVSPropertyOp4
 70
     1
102
RTVSPropertyOp5
 70
     1
102
RTVSPropertyOp6
 70
     1
102
RTVSPropertyOp7
 70
     1
102
RTVSPropertyOp8
 70
     1
102
RTVSPropertyOp9
 70
     1
102
RTVSPropertyOp10
 70
     1
102
RTVSPropertyOp11
 70
     1
102
RTVSPropertyOp12
 70
     1
102
RTVSPropertyOp13
 70
     1
102
RTVSPropertyOp14
 70
     1
102
RTVSPropertyOp15
 70
     1
102
RTVSPropertyOp16
 70
     1
102
RTVSPropertyOp17
 70
     1
102
RTVSPropertyOp18
 70
     1
102
RTVSPropertyOp19
 70
     1
102
RTVSPropertyOp20
 70
     1
102
RTVSPropertyOp21
 70
     1
102
RTVSPropertyOp22
 70
     1
102
RTVSPropertyOp23
 70
     1
102
RTVSPropertyOp24
 70
     1
102
RTVSPropertyOp25
 70
     1
102
RTVSPropertyOp26
 70
     1
102
RTVSPropertyOp27
 70
     1
102
RTVSPropertyOp28
 70
     1
102
RTVSPropertyOp29
 70
     1
102
RTVSPropertyOp30
 70
     1
102
RTVSPropertyOp31
 70
     1
102
RTVSPropertyOp32
 70
     1
102
RTVSPropertyOp33
 70
     1
102
RTVSPropertyOp34
 70
     1
102
RTVSPropertyOp35
 70
     1
102
RTVSPropertyOp36
 70
     1
102
RTVSPropertyOp37
 70
     1
102
RTVSPropertyOp38
 70
     1
102
RTVSPropertyOp39
 70
     1
102
RTVSPropertyOp40
 70
     1
102
RTVSPropertyOp41
 70
     1
102
RTVSPropertyOp42
 70
     1
102
RTVSPropertyOp43
 70
     1
102
RTVSPropertyOp44
 70
     1
102
RTVSPropertyOp45
 70
     1
102
RTVSPropertyOp46
 70
     1
102
RTVSPropertyOp47
 70
     1
102
RTVSPropertyOp48
 70
     1
102
RTVSPropertyOp49
 70
     1
102
RTVSPropertyOp50
 70
     1
102
RTVSPropertyOp51
 70
     0
102
RTVSPropertyOp52
 70
     0
102
RTVSPropertyOp53
 70
     1
102
RTVSPropertyOp54
 70
     1
102
RTVSPropertyOp55
 70
     1
102
RTVSPropertyOp56
 70
     1
102
RTVSPropertyOp57
 70
     1
102
RTVSPropertyOp58
 70
     1
102
RTVSPropertyOp59
 70
     1
102
RTVSPropertyOp60
 70
     1
102
RTVSPropertyOp61
 70
     1
102
RTVSPropertyOp62
 70
     1
  0
XRECORD
  5
20E
102
{ACAD_REACTORS
330
20D
102
}
330
20D
100
AcDbXrecord
280
     1
102
RTVSPost2010Prop28
280
     0
102
RTVSPost2010PropOp28
 70
     1
102
RTVSPost2010Prop29
280
     1
102
RTVSPost2010PropOp29
 70
     1
102
RTVSPost2010Prop30
280
     1
102
RTVSPost2010PropOp30
 70
     1
102
RTVSPost2010Prop31
280
     0
102
RTVSPost2010PropOp31
 70
     1
102
RTVSPost2010Prop32
280
     0
102
RTVSPost2010PropOp32
 70
     1
102
RTVSPost2010Prop33
280
     0
102
RTVSPost2010PropOp33
 70
     1
102
RTVSPost2010Prop34
280
     0
102
RTVSPost2010PropOp34
 70
     1
102
RTVSPost2010Prop35
280
     0
102
RTVSPost2010PropOp35
 70
     1
102
RTVSPost2010Prop36
280
     0
102
RTVSPost2010PropOp36
 70
     1
102
RTVSPost2010Prop37
 90
       50
102
RTVSPost2010PropOp37
 70
     1
102
RTVSPost2010Prop38
140
0.0
102
RTVSPost2010PropOp38
 70
     1
102
RTVSPost2010Prop39
140
1.0
102
RTVSPost2010PropOp39
 70
     1
102
RTVSPost2010Prop40
 90
        0
102
RTVSPost2010PropOp40
 70
     1
102
RTVSPost2010Prop41ColorIndex
 90
       18
102
RTVSPost2010Prop41ColorRGB
 90
        0
102
RTVSPost2010PropOp41
 70
     1
102
RTVSPost2010Prop42
 90
       50
102
RTVSPost2010PropOp42
 70
     1
102
RTVSPost2010Prop43
 90
        3
102
RTVSPost2010PropOp43
 70
     1
102
RTVSPost2010Prop44ColorIndex
 90
        5
102
RTVSPost2010Prop44ColorRGB
 90
      255
102
RTVSPost2010PropOp44
 70
     1
102
RTVSPost2010Prop45
280
     0
102
RTVSPost2010PropOp45
 70
     1
102
RTVSPost2010Prop46
 90
       50
102
RTVSPost2010PropOp46
 70
     1
102
RTVSPost2010Prop47
 90
       50
102
RTVSPost2010PropOp47
 70
     1
102
RTVSPost2010Prop48
 90
       50
102
RTVSPost2010PropOp48
 70
     1
102
RTVSPost2010Prop49
280
     0
102
RTVSPost2010PropOp49
 70
     1
102
RTVSPost2010Prop50
 90
       50
102
RTVSPost2010PropOp50
 70
     1
102
RTVSPost2010Prop51ColorIndex
 90
      256
102
RTVSPost2010Prop51ColorRGB
 90
-16777216
102
RTVSPost2010PropOp51
 70
     0
102
RTVSPost2010Prop52
140
1.0
102
RTVSPost2010PropOp52
 70
     0
102
RTVSPost2010Prop53
 90
        2
102
RTVSPost2010PropOp53
 70
     1
102
RTVSPost2010Prop54
  1
strokes_ogs.tif
102
RTVSPost2010PropOp54
 70
     1
102
RTVSPost2010Prop55
280
     0
102
RTVSPost2010PropOp55
 70
     1
102
RTVSPost2010Prop56
140
1.0
102
RTVSPost2010PropOp56
 70
     1
102
RTVSPost2010Prop57
140
1.0
102
RTVSPost2010PropOp57
 70
     1
102
RTVSPropertyOp0
 70
     1
102
RTVSPropertyOp1
 70
     1
102
RTVSPropertyOp2
 70
     1
102
RTVSPropertyOp3
 70
     1
102
RTVSPropertyOp4
 70
     1
102
RTVSPropertyOp5
 70
     1
102
RTVSPropertyOp6
 70
     1
102
RTVSPropertyOp7
 70
     1
102
RTVSPropertyOp8
 70
     1
102
RTVSPropertyOp9
 70
     1
102
RTVSPropertyOp10
 70
     1
102
RTVSPropertyOp11
 70
     1
102
RTVSPropertyOp12
 70
     1
102
RTVSPropertyOp13
 70
     1
102
RTVSPropertyOp14
 70
     1
102
RTVSPropertyOp15
 70
     1
102
RTVSPropertyOp16
 70
     1
102
RTVSPropertyOp17
 70
     1
102
RTVSPropertyOp18
 70
     1
102
RTVSPropertyOp19
 70
     1
102
RTVSPropertyOp20
 70
     1
102
RTVSPropertyOp21
 70
     1
102
RTVSPropertyOp22
 70
     1
102
RTVSPropertyOp23
 70
     1
102
RTVSPropertyOp24
 70
     1
102
RTVSPropertyOp25
 70
     1
102
RTVSPropertyOp26
 70
     1
102
RTVSPropertyOp27
 70
     1
102
RTVSPropertyOp28
 70
     1
102
RTVSPropertyOp29
 70
     1
102
RTVSPropertyOp30
 70
     1
102
RTVSPropertyOp31
 70
     1
102
RTVSPropertyOp32
 70
     1
102
RTVSPropertyOp33
 70
     1
102
RTVSPropertyOp34
 70
     1
102
RTVSPropertyOp35
 70
     1
102
RTVSPropertyOp36
 70
     1
102
RTVSPropertyOp37
 70
     1
102
RTVSPropertyOp38
 70
     1
102
RTVSPropertyOp39
 70
     1
102
RTVSPropertyOp40
 70
     1
102
RTVSPropertyOp41
 70
     1
102
RTVSPropertyOp42
 70
     1
102
RTVSPropertyOp43
 70
     1
102
RTVSPropertyOp44
 70
     1
102
RTVSPropertyOp45
 70
     1
102
RTVSPropertyOp46
 70
     1
102
RTVSPropertyOp47
 70
     1
102
RTVSPropertyOp48
 70
     1
102
RTVSPropertyOp49
 70
     1
102
RTVSPropertyOp50
 70
     1
102
RTVSPropertyOp51
 70
     0
102
RTVSPropertyOp52
 70
     0
102
RTVSPropertyOp53
 70
     1
102
RTVSPropertyOp54
 70
     1
102
RTVSPropertyOp55
 70
     1
102
RTVSPropertyOp56
 70
     1
102
RTVSPropertyOp57
 70
     1
102
RTVSPropertyOp58
 70
     1
102
RTVSPropertyOp59
 70
     1
102
RTVSPropertyOp60
 70
     1
102
RTVSPropertyOp61
 70
     1
102
RTVSPropertyOp62
 70
     1
  0
XRECORD
  5
226
102
{ACAD_REACTORS
330
225
102
}
330
225
100
AcDbXrecord
280
     1
102
RTVSPost2010Prop28
280
     0
102
RTVSPost2010PropOp28
 70
     1
102
RTVSPost2010Prop29
280
     1
102
RTVSPost2010PropOp29
 70
     1
102
RTVSPost2010Prop30
280
     1
102
RTVSPost2010PropOp30
 70
     1
102
RTVSPost2010Prop31
280
     0
102
RTVSPost2010PropOp31
 70
     1
102
RTVSPost2010Prop32
280
     0
102
RTVSPost2010PropOp32
 70
     1
102
RTVSPost2010Prop33
280
     0
102
RTVSPost2010PropOp33
 70
     1
102
RTVSPost2010Prop34
280
     0
102
RTVSPost2010PropOp34
 70
     1
102
RTVSPost2010Prop35
280
     0
102
RTVSPost2010PropOp35
 70
     1
102
RTVSPost2010Prop36
280
     0
102
RTVSPost2010PropOp36
 70
     1
102
RTVSPost2010Prop37
 90
       50
102
RTVSPost2010PropOp37
 70
     1
102
RTVSPost2010Prop38
140
0.0
102
RTVSPost2010PropOp38
 70
     1
102
RTVSPost2010Prop39
140
1.0
102
RTVSPost2010PropOp39
 70
     1
102
RTVSPost2010Prop40
 90
        0
102
RTVSPost2010PropOp40
 70
     1
102
RTVSPost2010Prop41ColorIndex
 90
       18
102
RTVSPost2010Prop41ColorRGB
 90
        0
102
RTVSPost2010PropOp41
 70
     1
102
RTVSPost2010Prop42
 90
       50
102
RTVSPost2010PropOp42
 70
     1
102
RTVSPost2010Prop43
 90
        3
102
RTVSPost2010PropOp43
 70
     1
102
RTVSPost2010Prop44ColorIndex
 90
        5
102
RTVSPost2010Prop44ColorRGB
 90
      255
102
RTVSPost2010PropOp44
 70
     1
102
RTVSPost2010Prop45
280
     0
102
RTVSPost2010PropOp45
 70
     1
102
RTVSPost2010Prop46
 90
       50
102
RTVSPost2010PropOp46
 70
     1
102
RTVSPost2010Prop47
 90
       50
102
RTVSPost2010PropOp47
 70
     1
102
RTVSPost2010Prop48
 90
       50
102
RTVSPost2010PropOp48
 70
     1
102
RTVSPost2010Prop49
280
     0
102
RTVSPost2010PropOp49
 70
     1
102
RTVSPost2010Prop50
 90
       50
102
RTVSPost2010PropOp50
 70
     1
102
RTVSPost2010Prop51ColorIndex
 90
      256
102
RTVSPost2010Prop51ColorRGB
 90
-16777216
102
RTVSPost2010PropOp51
 70
     0
102
RTVSPost2010Prop52
140
1.0
102
RTVSPost2010PropOp52
 70
     0
102
RTVSPost2010Prop53
 90
        2
102
RTVSPost2010PropOp53
 70
     1
102
RTVSPost2010Prop54
  1
strokes_ogs.tif
102
RTVSPost2010PropOp54
 70
     1
102
RTVSPost2010Prop55
280
     0
102
RTVSPost2010PropOp55
 70
     1
102
RTVSPost2010Prop56
140
1.0
102
RTVSPost2010PropOp56
 70
     1
102
RTVSPost2010Prop57
140
1.0
102
RTVSPost2010PropOp57
 70
     1
102
RTVSPropertyOp0
 70
     1
102
RTVSPropertyOp1
 70
     1
102
RTVSPropertyOp2
 70
     1
102
RTVSPropertyOp3
 70
     1
102
RTVSPropertyOp4
 70
     1
102
RTVSPropertyOp5
 70
     1
102
RTVSPropertyOp6
 70
     1
102
RTVSPropertyOp7
 70
     1
102
RTVSPropertyOp8
 70
     1
102
RTVSPropertyOp9
 70
     1
102
RTVSPropertyOp10
 70
     1
102
RTVSPropertyOp11
 70
     1
102
RTVSPropertyOp12
 70
     1
102
RTVSPropertyOp13
 70
     1
102
RTVSPropertyOp14
 70
     1
102
RTVSPropertyOp15
 70
     1
102
RTVSPropertyOp16
 70
     1
102
RTVSPropertyOp17
 70
     1
102
RTVSPropertyOp18
 70
     1
102
RTVSPropertyOp19
 70
     1
102
RTVSPropertyOp20
 70
     1
102
RTVSPropertyOp21
 70
     1
102
RTVSPropertyOp22
 70
     1
102
RTVSPropertyOp23
 70
     1
102
RTVSPropertyOp24
 70
     1
102
RTVSPropertyOp25
 70
     1
102
RTVSPropertyOp26
 70
     1
102
RTVSPropertyOp27
 70
     1
102
RTVSPropertyOp28
 70
     1
102
RTVSPropertyOp29
 70
     1
102
RTVSPropertyOp30
 70
     1
102
RTVSPropertyOp31
 70
     1
102
RTVSPropertyOp32
 70
     1
102
RTVSPropertyOp33
 70
     1
102
RTVSPropertyOp34
 70
     1
102
RTVSPropertyOp35
 70
     1
102
RTVSPropertyOp36
 70
     1
102
RTVSPropertyOp37
 70
     1
102
RTVSPropertyOp38
 70
     1
102
RTVSPropertyOp39
 70
     1
102
RTVSPropertyOp40
 70
     1
102
RTVSPropertyOp41
 70
     1
102
RTVSPropertyOp42
 70
     1
102
RTVSPropertyOp43
 70
     1
102
RTVSPropertyOp44
 70
     1
102
RTVSPropertyOp45
 70
     1
102
RTVSPropertyOp46
 70
     1
102
RTVSPropertyOp47
 70
     1
102
RTVSPropertyOp48
 70
     1
102
RTVSPropertyOp49
 70
     1
102
RTVSPropertyOp50
 70
     1
102
RTVSPropertyOp51
 70
     0
102
RTVSPropertyOp52
 70
     0
102
RTVSPropertyOp53
 70
     1
102
RTVSPropertyOp54
 70
     1
102
RTVSPropertyOp55
 70
     1
102
RTVSPropertyOp56
 70
     1
102
RTVSPropertyOp57
 70
     1
102
RTVSPropertyOp58
 70
     1
102
RTVSPropertyOp59
 70
     1
102
RTVSPropertyOp60
 70
     1
102
RTVSPropertyOp61
 70
     1
102
RTVSPropertyOp62
 70
     1
  0
ENDSEC
  0
EOF
